Guitar Tabs, Chords and Lyrics


Sons Of Thunder   Misc. Unsigned Bands



played in standard tuning, DigiTech Grunge run through a Kustom 212 100W amp, or a Line6 
III amp using "Master of Puppets" distortion

Riff 1 (clean)
E:-3-3-3-3-4-4-4-4-1-1-1-1-3-3-3-3------------------------|
B:1-1-1-1-1-1-1-1-1-1-1-1-1-1-1-1-------------------------|
G:--------------------------------------------------------|
D:--------------------------------------------------------|
A:--------------------------------------------------------|
E:--------------------------------------------------------|

Riff 2 (distorted using DigiTech Grunge or Spider III Master of Puppets)

E:--------------------------------------------------------|
B:--------------------------------------------------------|
G:--------------------------------------------------------|
D:--------------------------------------------------------|
A:--------------------------------------------------------|
E:x-x-x-x-2-x-x-2-x-x-6-5-x-x-x-x-2-x-x-2-x-x-8-7---------|

repeat first half of riff2 (ending with 6-5)

E:--------------------------------------------------------|
B:--------------------------------------------------------|
G:--------------------------------------------------------|
D:--------------------------------------------------------|
A:2---4-6-x-x-4-x-4-x-x-x-4-x-4-x-x-x-4-x-4-x-x-x-4-6-----|


Important: The song above is NOT stored on the Chordie server. The original song is hosted at www.guitaretab.com. Chordie works as a search engine and provides on-the-fly formatting. Chordie does not index songs against artists'/composers' will. To remove this song please click here.

This song is displayed as text-only. Transposing and tuning is only available for chordpro-songs.

Login - add to songbook

Rating click stars to rate

Layout
Accuracy

SHARE PAGE  




You need to log in to post comments