Guitar Tabs, Chords and Lyrics


Song 1   Misc. Unsigned Bands



Intro:
|----------------------------------------------------------------------|
|----------------------------------------------------------------------|
|----------------------------------------------------------------------|
|--------2-2------------2-2-4--------2-2-------------------------------|
|-2------0-0—3p0--2-----0-0-2--2-----0-0—3p0--4-------6-------------5p-|
|-0—3p0-----------0—3p0--------0—3p0----------2-2-2-2-4-4-4-4-7p5p0----|

Verse:
|------------------------------------|
|------------------------------------|
|----------5-5-4-2----------4-4-4-5--|
|----------5-5-4-2----------5-5-5-5--|
|-2-----2-----------2-----2----------|
|-0-0-0-0-----------0-0-0-0----------|

|------------------------------------|
|------------------------------------|
|----------5-5-4-2----------4-4-4-5--|
|----------5-5-4-2----------5-5-5-5--|
|-2-----2-----------2-----2----------|
|-0-0-0-0-----------0-0-0-0----------|

|------------------------------------------|
|-----------8--8-7-5------------8--9--9-10-|
|-----------9--9-8-6------------9--9--9-10-|
|-2-----2--10-10-9-7--2-----2--10-10-10-10-|
|-0-0-0-0-------------0-0-0-0--------------|
|------------------------------------------|

|------------------------------------------|
|------------------------------------------|
|----------5-5-4-2-------------------------|
|----------5-5-4-2-------------------------|
|-2-----2-----------2-----4-------5p-------|
|-0-0-0-0-----------0-0-0-2—7p5p0----------|

Chorus:
|----------------------------------------------------------------------|
|----------------------------------------------------------------------|
|----------------------------------------------------------------------|
|--------2-2------------2-2-4--------2-2-------------------------------|
|-2------0-0—3p0--2-----0-0-2--2-----0-0—3p0--4-------6-------------5p-|
|-0—3p0-----------0—3p0--------0—3p0----------2-2-2-2-4-4-4-4-7p5p0----|

Bridge:
|-------------------------------------------------------|
|-------------------------------------------------------|
|-------------------------------------------------------|
|---------------5p4p0h2p0h4h5----------------5p4p0-5-5--|
|-2-----7p5--------------------2-----7p5-----------3-2--|
|-0-0-0-----0-0----------------0-0-0-----0-0------------|

|-------------------------------------------------|
|-------------------------------------------------|
|-------------------------------------------------|
|--------------5p4p0h2p0h4h5----------------------|
|-2-----7p5-------------------2-----7p5------5-5--|
|-0-0-0----0-0----------------0-0-0-----0-0--3-2--|

Solo Rythem:
|------------------------------------------------|
|------------------------------------------------|
|------------------------------------------------|
|-------------------5-5--------------------------|
|-2-----2-----2-----3-2--2-----2-----2-----5-5---|
|-0-0-0-0-0-0-0-0-0------0-0-0-0-0-0-0-0-0-3-2---|




Important: The song above is NOT stored on the Chordie server. The original song is hosted at www.guitaretab.com. Chordie works as a search engine and provides on-the-fly formatting. Chordie does not index songs against artists'/composers' will. To remove this song please click here.

This song is displayed as text-only. Transposing and tuning is only available for chordpro-songs.

Login - add to songbook

Rating click stars to rate

Layout
Accuracy

SHARE PAGE  




You need to log in to post comments