Guitar Tabs, Chords and Lyrics


Someone   Misc. Unsigned Bands



"Someone," by Steven Loki Howell
Tabbed by: Xan Hamilton
Capo on 5th Fret

h/p = Hammer-on/Pull-off

I suggest listening to the actual song to figure out the strumming pattern.
http://www.myspace.com/stevenhowell

C                         D/Em7           Am7                      D/Em7
|----0-0-0-0-------------|-0-0-0-0-0000--|----0-0-0-0-------------|-0-0-0-0-0000--|
|----1-1-1-1-------------|-1-1-1-1-1111--|----1-1-1-1-------------|-1-1-1-1-1111--|
|----0-0-0-0-------------|-0-0-0-0-0000--|----0-0-0-0-------------|-0-0-0-0-0000--|
|0h2-2-2-2-2h3p2-2p0-----|-0-0-0-0-0000--|0h2-2-2-2-2h3p2-2p0-----|-0-0-0-0-0000--|
|----3-3-3-3---------0h2-|-2-2-2-2-2222--|----0-0-0-0---------0h2-|-2-2-2-2-2222--|
|------------------------|---------------|------------------------|---------------|
 One time before verse, then 2x for the verse.

"Home, I've lost home..."
F (of sorts)   D/Em7
|0-0-0-0-0000-|0-0-0-0-0000-|
|1-1-1-1-1111-|2-2-2-2-2222-|
|2-2-2-2-2222-|0-0-0-0-0000-|
|3-3-3-3-3333-|0-0-0-0-0000-|
|3-3-3-3-3333-|2-2-2-2-2222-|
|-------------|-------------| x2

Chorus:
"You're my someone..."
Am7            F (of sorts)
|0-0-0-0-0000-|0-0-0-0-0000-|
|1-1-1-1-1111-|1-1-1-1-1111-|
|0-0-0-0-0000-|2-2-2-2-2222-|
|2-2-2-2-2222-|3-3-3-3-3333-|
|0-0-0-0-0000-|3-3-3-3-3333-|
|-------------|-------------|

Continuation chorus:
"We could've worked it out"
C             D/Em7
|0-0-0-0-0000-|0-0-0-0-0000-|
|1-1-1-1-1111-|2-2-2-2-2222-|
|0-0-0-0-0000-|0-0-0-0-0000-|
|2-2-2-2-2222-|0-0-0-0-0000-|
|3-3-3-3-3333-|2-2-2-2-2222-|
|-------------|-------------|

2nd Verse is the same chords as the 1st.

2nd Chorus, same chords as the 1st.

Bridge after 2nd chorus:
F (of sorts)   D/Em7
|0-0-0-0-0000-|0-0-0-0-0000-|
|1-1-1-1-1111-|2-2-2-2-2222-|
|2-2-2-2-2222-|0-0-0-0-0000-|
|3-3-3-3-3333-|0-0-0-0-0000-|
|3-3-3-3-3333-|2-2-2-2-2222-|
|-------------|-------------| x4

Chorus again.



Important: The song above is NOT stored on the Chordie server. The original song is hosted at www.guitaretab.com. Chordie works as a search engine and provides on-the-fly formatting. Chordie does not index songs against artists'/composers' will. To remove this song please click here.

This song is displayed as text-only. Transposing and tuning is only available for chordpro-songs.

Login - add to songbook

Rating click stars to rate

Layout
Accuracy

SHARE PAGE  




You need to log in to post comments