Guitar Tabs, Chords and Lyrics


Peaceful Serenity   Misc. Unsigned Bands



capo can be put just about anywhere, if desired. sounds great..
standard tuning

Part I
E---------------------------------------------------------}
B---------0h1---1h3---3p1-----------0h1---1h3---3p1-------}
G-------2-----2-----2-----2-------0-----0-----0----0------}Keep a fast tempo
D-----2------------------------2--------------------------}throughout the
A---0------------------------3----------------------------}song.
E---------------------------------------------------------}
   Am                        C
E---------------------------------------------------------}
B---------0h1---1h3---3p1---------------------------------}
G-------0-----0-----0-----0---------0--0-------0--0--0----}Repeat
D-----0---------------------------3----------5------------}   many many
A-------------------------------3----------5--------------}     times.
E---3-------------------------1----------3----------------}
    G                         F          G
____________________________________________________________________

Part II
E-------------0---------------------------------------}
B---------0h1-----------------------------------------}
G-------2----------------------------------------------}Last time through
D-----2------------------------------------------------}play this with an
A---0---------------------------------

Important: The song above is NOT stored on the Chordie server. The original song is hosted at www.guitaretab.com. Chordie works as a search engine and provides on-the-fly formatting. Chordie does not index songs against artists'/composers' will. To remove this song please click here.

This song is displayed as text-only. Transposing and tuning is only available for chordpro-songs.

Login - add to songbook

Rating click stars to rate

Layout
Accuracy

SHARE PAGE  




You need to log in to post comments