Guitar Tabs, Chords and Lyrics


Circles   Misc. Unsigned Bands



Cba tabbing both guitars so i tabbed my fave parts

Not in order these are just the parts

No strum pattern

|-------------------|
|-------------------|
|-14-13-9--14-13-16-|
|-------------------|
|-12-11-7--12-11-14-|
|-------------------|

|------------------------------------------------|
|------------------------------------------------|
|---1-2--1-2-1-2---1-2--1-2-1-2---1-2-4-2-1-2-1--| 
|----------------------------------------------2-|
|-44---4---------00---0---------22---------------|
|-44---4---------00---0---------22---------------|

|----|
|----|
|-11-|
|----|
|-9--|
|----|

|-------------------------------------|
|-------------------------------------|
|-------1-2--1-2-1-2---1-2-4-2-1-2-1--|
|-0-2--------------------------------2|
|-0-2-44---4---------44---------------|
|-0-2-44---4---------44---------------|

|--------------------|
|------10/9--9--9/10-|
|---4/6----10-10-----|
|--------------------|
|-4------------------|
|-4------------------|

Can't figure the harmonixy bit :[

|---------|
|---------|
|---------|
|-0-2-4-2-|
|-0-2-4-2-|
|-0-2-4-2-|

|------    ------   ------|
|------    ------   ------|
|---1h2    ---1h2   ---1h2|
|-00--- x4 -22---x4 -44---|x8
|-00---    -22---   -44---|
|-00---    -22---   -44---|

Finished :]

this is prob 100%
Don't complain this is my first tab.


Important: The song above is NOT stored on the Chordie server. The original song is hosted at www.guitaretab.com. Chordie works as a search engine and provides on-the-fly formatting. Chordie does not index songs against artists'/composers' will. To remove this song please click here.

This song is displayed as text-only. Transposing and tuning is only available for chordpro-songs.

Login - add to songbook

Rating click stars to rate

Layout
Accuracy

SHARE PAGE  




You need to log in to post comments