Guitar Tabs, Chords and Lyrics


Fallout   Misc. Unsigned Bands



odd intro
e|----------------------------------------------------------------------|
B|----------------------------------------------------------------------|
G|----------------------------------------------------------------------|
D|-----------------------------------5-6-5------------------------------|
A|-3--8--6--2---3--8--6-x2-6-5-3-6-5-------5-3-2v-----------------------|
D|-1--6--4--0---1--6--4-------------------------------------------------|
odd Riff 1
e|------------------------------------------------------------------------|
B|------------------------------------------------------------------------|
G|----------------------------------------------------------------0-------|
D|------------------------------------------------------------------3-2-0-|
A|---------2-3-2-0-2-3-2---------2-3-2v---------2-3-2-0-2-3-2---3---------|
D|-0-0-3-0---------------0-0-3-0--------0-0-3-0---------------1-----------|
                 ODD RIFF 2                   on last time
e|--------------|---------------------------|------------------------------|
B|--------------|---------------------------|------------------------------|
G|--------------|---------------------------|----------------4-5-4---------|
D|-2-3-2-0-2v---|-------4-------------------|-2bw/-5-4-2-5-4-------5-4-2-1v|
A|--------------|-3-x16-x-x16-5-x-16-2-x16--|-2bw/-------------------------|
D|--------------|-2-----2-----2------2------|-2bw/-------------------------|
solo
e|----------------------------------------------------------------------|
B|----------------------------------------------------------------------|
G|----------------------------------------------------------------------|
D|-------------------12-13-15-x2-------------------12-14-15x2-----------|
A|----------12-13-15----------------------12-14-15----------------------|
D|-12-13-15----------------------12-14-15-------------------------------|

e|-----------13-13-11-10------------------------------------------------|
B|---------12------------14-12-10---------------------------------------|
G|-------11-----------------------14-12-10------------------------------|
D|-----12----------------------------------14-12-10---------------------|
A|---13---------------------------------------------14-12-10------------|
D|-14--------------------------------------------------------14-12-10---|

e|-11-11-11-11-11-11-11-11-11-11-11-11-11-11----------------------------|
B|-13-13-13-13-13-13-13-13-13-13-13-13-13-13

Important: The song above is NOT stored on the Chordie server. The original song is hosted at www.guitaretab.com. Chordie works as a search engine and provides on-the-fly formatting. Chordie does not index songs against artists'/composers' will. To remove this song please click here.

This song is displayed as text-only. Transposing and tuning is only available for chordpro-songs.

Login - add to songbook

Rating click stars to rate

Layout
Accuracy

SHARE PAGE  




You need to log in to post comments