Guitar Tabs, Chords and Lyrics


Walk Hard  Misc. Unsigned Bands

---INTRO---



E-------------------------------------------------------------|

B-------------------------------------------------------------|
G-------------------------------------------------------------|
D-------------------------------------------------------------|
A--2---4---4^5^4-------------4^5----4^5^4----2----------------|
E------------------3------------------------------------------|
E-------------------------------------------------------------|
B-------------------------------------------------------------|
G-------------------------------------------------------------|
D-------4-----------------------------------------------------|
A---4/6-----------2----4^5----4^5^4----2----------------------|
E-------------------------------------------------------------|
Walk [Bm]hard...  [D]Hard....
Down [G]lifes...  Rocky [A]road[A#]s...
Walk [Bm]bold .... [D]Hard...
At my [G]creed... my [A]cod[A#]e.....
I been [E]stormed and slandered and [A]ridiculed [E]too
Had to [D]struggle everyday my [G]whole life [D]through
Seen my [E]share of the worst that this [A]world can [E]give
But I [F#]still got a dream and a [G]burnin' [A]rage to [B]live
Walk [Bm]hard.... [D]hard....
When they [G]say....  youre all [A]done[A#]...
Walk [Bm]bold.... [D]hard...
Though they [G]say... you're not the [A]one.[A#]..
Even [E]if you been told time and [A]time ag[E]ain
That you're [D]always gonna lose and you're [G]never gonna [D]win
Gotta [E]keep that vision in [A]your minds [E]eye
When your [F#]standin' on top of a [G]mountain [B]high
(solo)

E-------------------------------------------------------------|
B-------------------------------------------------------------|
G-------------------------------------------------------------|
D-------------------------------------------------------------|
A-------2-------------------2---4^5---4^5^~4~--2--------------|
E---~2~-0----------0--2--3---------------------0--------------|
E-------------------------------------------------------------|
B-------------------------------------------------------------|
G-------------------------------------------------------------|
D-------------------------------------------------------------|
A-------2-------------------2---4^5---4^5^~4~--5-/6-/~7~------|
E---~2~-0----------0--2--3------------------------------------|



(spoken)

E-F#-G-A (Fast slide from F# to G, listen to song)

You know, when i was a boy, Folks used to say to me..
Slow down, Dewey, don't walk so hard..
And I used to tell them..
Life's a race, and I'm in it to win it.
And I walk as damn hard as I please!

how do I walk boys? ([A]ha[A#]rd)[B]

When I [E]meet my maker on my [A]dying [E]day..
Gonna [D]look him in the eye and by [G]god i'll [D]say..
I [E]gave my word and my [A]word was [E]good..
I [F#]took it in the face and I [G]walked as [A]hard as I [B]could!
[Bm]Walk Hard.. (hard)
[Bm]Walk Hard.. (hard)
[Bm]Walk Hard.. (hard)
[B]WALK HARD!

Important: The song above is NOT stored on the Chordie server. The original song is hosted at www.guitaretab.com. Chordie works as a search engine and provides on-the-fly formatting. Chordie does not index songs against artists'/composers' will. To remove this song please click here.

Text color:
Chord color:
Chord grids: 
Font size:    
Page size: 

A A# B Bm D E F# G
variations - click chord images

Login - add to songbook

Transpose chords

Tuning

Rating click stars to rate

Layout
Accuracy

SHARE PAGE  




You need to log in to post comments