Guitar Tabs, Chords and Lyrics


Nothing Unless You Believe  Misc. Unsigned Bands

e|-0---0--0-0-0--0--0-0--------0--0-0-0--0--0-0----|


B|-1-0-1--1-1-1-h3-p1-1-0--1-0-1--1-1-1-h3-p1-1----|


G|-2-0-2--2-2-2--2--2-2-0--2-0-2--2-2-2--2--2-2----|<--Do that 2 times.

D|-2-0-2--2-2-2--2--2-2-0--2-0-2--2-2-2--2--2-2----|
A|-0---0--0-0-0--0--0-0----0---0--0-0-0--0--0-0----|
E|-------------------------------------------------|
A[Am]nother [C]Day Mean[Am]s More Mi[G]soury..
A[Am]nother Pho[C]tograph means [Am]to much m[G]emory..
A[Am]nother b[C]ook means [Am]so much more [G]to read..
S[Am]o If Not[C]hing Then [Am]You Just Said To [G]Me..
Chorus:

[Am]If You've[Am] got nothing[Am] then just t[C]hink what you[Am] can be,
[Am]Just go [Am]at it, an[Am]d then yo[G]u'll know[Am] what to be...

Guitar Interlude:
(Same as intro)

e|-0---0--0-0-0--0--0-0--------0--0-0-0--0--0-0----|
B|-1-0-1--1-1-1-h3-p1-1-0--1-0-1--1-1-1-h3-p1-1----|
G|-2-0-2--2-2-2--2--2-2-0--2-0-2--2-2-2--2--2-2----|<--Do that 2 times.
D|-2-0-2--2-2-2--2--2-2-0--2-0-2--2-2-2--2--2-2----|
A|-0---0--0-0-0--0--0-0----0---0--0-0-0--0--0-0----|
E|-------------------------------------------------|


Verse 2:

A[Am]nother Pe[C]nny Means S[Am]o Much More [G]To Me..
A[Am]nother g[C]uitar means 2[Am] new songs f[G]or me..
A[Am]nother re[C]cord means 5[Am] more bucks [G]for me..
S[Am]o If Goo[C]d Then Yo[Am]u Just Said T[G]o Me..

Guitar Interlude:

e|-0---0--0-0-0--0--0-0--------0--0-0-0--0--0-h3-3-3--h3p0-0-3-h3p0-0-|
B|-1-0-1--1-1-1-h3-p1-1-0--1-0-1--1-1-1-h3-p1--1-1-1--1--1-1-1--1-1-1-|
G|-2-0-2--2-2-2--2--2-2-0--2-0-2--2-2-2--2--2--2-2-2--2--2-2-2--2-2-2-|
D|-2-0-2--2-2-2--2--2-2-0--2-0-2--2-2-2--2--2--2-2-2--2--2-2-2--2-2-2-|<-do
A|-0---0--0-0-0--0--0-0----0---0--0-0-0--0--0--0-0-0--0--0-0-0--0-0-0-|that
E|--------------------------------------------------------------------|2 x's


Bridge:
J[Am]ust Don't [G]Stop..
A[Am]nd then you[C]'ll believe..
S[Am]o you'll get noth[G]ing unless you b[Am]elieve!

Guitar Iterlude(again):
   [Am]                                                                                         
e|-0---0--0-0-0--0--0-0--------0--0-0-0--0--0-0----|
B|-1-0-1--1-1-1-h3-p1-1-0--1-0-1--1-1-1-h3-p1-1----|
G|-2-0-2--2-2-2--2--2-2-0--2-0-2--2-2-2--2--2-2----|
D|-2-0-2--2-2-2--2--2-2-0--2-0-2--2-2-2--2--2-2----|
A|-0---0--0-0-0--0--0-0----0---0--0-0-0--0--0-0----|
E|-------------------------------------------------|
e|-0-3-3-3-3-3-3-3-3-3--0-0-0--0---0-3-3-3p0---0---|
B|-1-1-1-1-1-1-1-1-1-1--1-1-1--1-0-1-1-1-1-1-0-1---|
G|-2-2-2-2-2-2-2-2-2-2--2-2-2--2-0-2-2-2-2-2-0-2---|
D|-2-2-2-2-2-2-2-2-2-2--2-2-2--2-0-2-2-2-2-2-0-2---|
A|-0-0-0-0-0-0-0-0-0-0--0-0-0--0---0-0-0-0-0---0---|
E|-------------------------------------------------|


Last Part:

[Am]So If You [C]Believe..
[Am]Then you'll[G] succeed
[Am]So it's; N[G]othing Un[D]less You [Am]believe

Outro:
e|-0---0--|

B|-1-0-1--|
G|-2-0-2--|
D|-2-0-2--|
A|-0---0--|
E|--------|


Well that's it, Enjoy!
Please commment and Rate!

Important: The song above is NOT stored on the Chordie server. The original song is hosted at www.guitaretab.com. Chordie works as a search engine and provides on-the-fly formatting. Chordie does not index songs against artists'/composers' will. To remove this song please click here.

Text color:
Chord color:
Chord grids: 
Font size:    
Page size: 

Am C D G
variations - click chord images

Login - add to songbook

Transpose chords

Tuning

Rating click stars to rate

Layout
Accuracy

SHARE PAGE  




You need to log in to post comments