Guitar Tabs, Chords and Lyrics


One Day   Misc. Unsigned Bands



opening
e------------------------------------------------|
B------------------------------------------------|
G------------------------------------------------|
D----------------------------------------X2------|
A--10-------6--------13---------8----------------|
E--8--------4--------11---------6----------------|
chorus
e-----------------------------------------------------------|
B-----------------------------------------------------------|
G-----------------------------------------------------------|
D--------------------------------------------------------X2-|
A-101010-6-666-131313-8-888--101010-6-666-8888-1313-1212----|
E-8-8-8--4-444-111111-6-666--8-8-8--4-444-6666-1111-1010----|
          those are 11's and 13's
verse 1
e-------------------------------------------------------------------------|
B-------------------------------------------------------------------------|
G-------------------------------------------------------------------------|
D--5-7-----777-9-999-X2-555-777---------77-9-999-X2-77-9-999-77-9-999999--|
A------6-4-555-7-777------------666-444-55-7-777----55-7-777-55-7-777777--|
E-0-0-0-0-----0----------------0---0---0----------------------------------|
chorus
e-----------------------------------------------------------|
B-----------------------------------------------------------|
G-----------------------------------------------------------|
D--------------------------------------------------------X4-|
A-101010-6-666-131313-8-888--101010-6-666-8888-1313-1212----|
E-8-8-8--4-444-111111-6-666--8-8-8--4-444-6666-1111-1010----|
verse 2
e------------------------------------|-------------------------------------|
B------------------------------------|-------------------------------------|
G------------------------------------|-5-7--------777-9-999-777-9-999999---|
D--5-7-----777-9-999-X2-----7-5------|-5-7-6-4-X2-777-9-999-777-9-999999---|
A------6-4-555-7-777----4-6-----765-3|0----6-4----555-7-777-555-7-777777---|
E-0-0-0-0--------------0-0-0-0-0-----|0-0-0-0------------------------------|
chorus
e-----------------------------------------------------------|
B-----------------------------------------------------------|
G-101010-6-666--------8-888--101010-6-666-8888-1313-1212----|
D-101010-6-666-131313-8-888--101010-6-666-8888-1313-1212-X5-|
A-8-8-8--4-444-111111-6-666--8-8-8--4-444-6666-1111-1010----|
E-8-8-8--4-444-111111-6-666--8-8-8--4-444-6666-1111-1010----|
outro
e-----------------------------------------------------------|
B-----------------------------------------------------------|
G-1010101010101010-1313-1212--X2-1010101010101010-13-12-10--|
D-1010101010101010-1313-1212-----1010101010101010-13-12-10--|
A-8-8-8-8-8-8-8-8--1111-1010-----8-8-8-8-8-8-8-8--11-10-8---|


Important: The song above is NOT stored on the Chordie server. The original song is hosted at www.guitaretab.com. Chordie works as a search engine and provides on-the-fly formatting. Chordie does not index songs against artists'/composers' will. To remove this song please click here.

This song is displayed as text-only. Transposing and tuning is only available for chordpro-songs.

Login - add to songbook

Rating click stars to rate

Layout
Accuracy

SHARE PAGE  




You need to log in to post comments