Guitar Tabs, Chords and Lyrics


Pointless   Misc. Unsigned Bands



			     Pointless - Delta 9
----------------------------------------------------------------------------
Tabbed by:Clayton Sackett
Email:cdsackett@gmail.com

Tuning:Drop D

e|-------------------------------------------------------------------------|
B|-------------------------------------------------------------------------|
G|--------------------9----------------------------9-----------------------|
D|---------10-----10-----10~~~----------10-----10-----10-10/12b~~~---------|
A|------8------8---------------------8------8-----------------------------0|
D|---0----------------------------0---------------------------------------0|

e|-------------------------------------------------------------------------|
B|-------------------------------------------------------------------------|
G|--------------------9----------------------------9-----------------------|
D|---------10-----10-----10~~~----------10-----10-----10-10/12-10-12p10----|
A|------8------8---------------------8------8------------------------------|
D|---0----------------------------0----------------------------------------|

e|-------------------------------------------------------------------------|
B|-------------------------------------------------------------------------|
G|---------------10---------7---7/10-1010\9-9\5--5---7---------------------|
D|---------------10---------7---x----x-x--x-x-x--3---5---8p7-0-3h5-3p0-----|
A|---12/10-8h10--8----------5---5/8--8-8-\7-7\3--3---5---8p7-0-3h5-3p0-----|
D|---------------8----------5--------------------3---5---8p7-0-3h5-3p0-----|
                [____________]                  [_____]
                    Strum                        Strum   

| /  slide up
| \  slide down
| h  hammer-on
| p  pull-off
| ~  vibrato
| +  harmonic
| x  Mute note
===============================================================================


Important: The song above is NOT stored on the Chordie server. The original song is hosted at www.guitaretab.com. Chordie works as a search engine and provides on-the-fly formatting. Chordie does not index songs against artists'/composers' will. To remove this song please click here.

This song is displayed as text-only. Transposing and tuning is only available for chordpro-songs.

Login - add to songbook

Rating click stars to rate

Layout
Accuracy

SHARE PAGE  




You need to log in to post comments