Guitar Tabs, Chords and Lyrics


Unleash The Sands Of All Time  Misc. Unsigned Bands

I---Verse--------------IChorus---------------------------------->I


I----Em7-C----D5--E/G#-I--Am(I)-D(I)-Bm--Am(II)--Em--G5--------->D(II)-I


I-Eb--------------12---I--12----10---7---5-------7-------14----->I

I-Bb-7------------12---I--13----10---7---5-------8-------15----->I
I-Gb-7---9----7---13---I--14----11---7---5-------9--(4)--14----->I
I-Db-x---10---7--(14)--I--14----12---9---7-------9---5---0------>I
I-Ab-7---10---5--(11)--I-(12)--(12)------------------5---------->I
I-Eb-----8-------------I-------(10)------------------3---------->I
[Em7]Search yourself you are the world tonight
[C]Wo[Em7]uld [D5]you give it all in slight in stealth
[Em7]As we try to fake indifference
[C]Bu[Em7]t yo[D5]u can’t disguise this love
[Em7]To s[C]ay[Em7] goo[D5]dbye is the hardest thing in life
Pre-Chorus

And to let go!!!

Eb---------->I
Bb---------->I
Gb-9-9-9-9-->I

Db-x-x-x-x-I
Ab-7-7-7-7-->I
Eb-0-0-0-0-->I



Bass-Fill

Eb---------------I--------->
Bb---------------I--------->
Gb---------------I--------->
Db-0-2-0---------I--------->
Ab-------2-0---0-I--------->
Eb-----------3---I-0-0-0-0->



Last-Bar = E/G#


Chorus

Am(I) D Bm * Em
The ghost in my head made me say what I said

Am(II) + G5 D(II)
You’ll never fall in love with anyone but me

Am(I) D Bm * Em
With a thirst and a hope and a loss of control

Am(II) + G5 D(II)
Do you want a ride unleash the sands of all time


* =
---Bm------------------Em--------------->I
Eb-7-7-7-7-7-7-7--7--I-7-7-7-7-7-7-7-7-->I
Bb-7-7-7-8-8-8-10-10-I-8-8-8-8-8-8-8-8-->I
Gb-7-7-7-7-7-7-7--7--I-9-9-9-9-9-9-9-9-->I
Db-9-9-9-9-9-9-9--9--I-9-9-9-9-9-9-9-9-->I
Ab-------------------I------------------>I
Eb-------------------I------------------>I


+ =

--Am--------G5-------------->
Eb---------I---------------->
Bb---------I---------------->
Gb---------I-(4)-(4)-(4)---->
Db---------I--5---5---5----->
Ab---------I--5---5---5----->
Eb-8-7-5-3-I--3---3---3----->


The little Riff Is A Passing Thing During The Am Chord So Keep The feel Going...


Verse 2 - See Verse 1 Chords
Serve your soul nourish and enrich and touch
And do it all despite yourself
As we fly the heart of you is beating fast
Take control you give it all you got but you want more

Outro = Em7 with D5 stabs @ the end of the bars! Listen for for when/times :)

Important: The song above is NOT stored on the Chordie server. The original song is hosted at www.guitaretab.com. Chordie works as a search engine and provides on-the-fly formatting. Chordie does not index songs against artists'/composers' will. To remove this song please click here.

Text color:
Chord color:
Chord grids: 
Font size:    
Page size: 

C D5 Em7
variations - click chord images

Login - add to songbook

Transpose chords

Tuning

Rating click stars to rate

Layout
Accuracy

SHARE PAGE  




You need to log in to post comments