eToCache5 = ""; ?> A Grave Robbing In Waterville by Misc. Unsigned Bands - guitar chords, guitar tabs and lyrics - chordie

A Grave Robbing In Waterville

Misc. Unsigned Bands

 Intro
E|-----------------------------------------------------|
B|-----------------------------------------------------|
G|-----9/10------5/7-----------2---------------2-------| [4x]
D|---------------------5-3-2-3---3-2-3-5-3-2-3---3-2-3-|
A|--00-7/8--0000-3/5-0---------------------------------|
D|--00------0000-----0---------------------------------|


 On last time of Intro
E|----------------------------------|
B|----------------------------------|
G|----------2---------------2-------|
D|--5-3-2-3---3-2-3-5-3-2-3---3-2-3-|
A|----------------------------------|
D|----------------------------------|


 Bridge
  (This part is hard to tab, so just listen for the rythmn)
E|------------------------------------------------|
B|----7---7-----7---7---7-----6---6-----6---6---6-|
G|----10--10----10--10--10----9---9-----9---9---9-|[4x]
D|--000-000-00000-000-000---000-000-00000-000-000-|
A|------------------------------------------------|
D|------------------------------------------------|


 Verse
E|----------------------------------------|
B|--------10-------9--------5--------5/7--|
G|----------------------------------------|[4x]
D|--------8--------7--------3--------3/5--|
A|--00-000---00-000---00-000---00-000-----|
D|--00-000---00-000---00-000---00-000-----|


 Bridge
E|------------|
B|------------|
G|------------|
D|------------|
A|--0-0-3330--|
D|--0-0-3330--|


The best way to do this part is to play Chris's 1x than Mine 3x

 Cborus
  (Chris)
E|------------------------------|
B|------------------------------|
G|---------------------------5--|[1x]
D|----3-2-5-3-2~3~2----3-2-5----|
A|-----------------3------------|
D|--00---0-0---------00---0-0---|


 Cborus
  (Mike)
E|--------------------------------------------|
B|--------------------------------------------|
G|--------------------------------------------|[3x]
D|----------------------------------------15--|
A|----12-10-13-12-12~13~12-----12-10-13-12----|
D|--00-----0--0-----------15-00-----0--0------|


 Breakdown
  (Mike) (play till it ends)
E|----------------------|
B|----7--7--7--7--7--7--|
G|--10-10-10-10-10-10---|
D|----------------------|
A|----------------------|
D|----------------------|


 Breakdown
  (Chris)
E|-----------------------|
B|-----------------------|
G|--------------------5--|
D|------2~3~2------2~3---|
A|--0-00-----3-0-00------|
D|--0-00-------0-00------|


 IntroBold
E|-----------------------------------------------------|----|
B|-----------------------------------------------------|----|
G|-----9/10------5/7-----------2---------------2-------|----|[4x]
D|---------------------5-3-2-3---3-2-3-5-3-2-3---3-2-3-|----|
A|--00-7/8--0000-3/5-0---------------------------------|--0-|
D|--00------0000-----0---------------------------------|--0-|


 Breakdown 2
E|-------------------------------------------------------------|
B|-----------------------------2----------------------------6--|
G|-----------------------------5----------------------------9--|[3x]
D|-------------------------------------------------------------|
A|--0-00-0-0-00-8--0-00-0-0-00---0-00-0-0-00-8--0-00-0-0-00----|
D|--0-00-0-0-00-8--0-00-0-0-00---0-00-0-0-00-8--0-00-0-0-00----|


 Cborus 2
  (Mike) (You'll get the general pattern)
E|----------------------------------|
B|----7--7--7--7--7--7--7--7--7-----|
G|--10-10-10-10-10-10-10-10-10------|[10x]
D|----------------------------------|
A|------------------------------00--|
D|------------------------------00--|


 Cborus 2
  (Chris)
E|------------------------------------|
B|---4-4-4-4-4-4-4----2-2-2-2-2-2-2---|
G|--7-7-7-7-7-7-7-7--5-5-5-5-5-5-5-5--|[2x]
D|------------------------------------|
A|------------------------------------|
D|------------------------------------|


 Versefin
E|----------------------------------------|---|
B|--------10-------9--------5--------5/7--|---|
G|----------------------------------------|---|[4x]
D|--------8--------7--------3--------3/5--|---|
A|--00-000---00-000---00-000---00-000-----|-0-|
D|--00-000---00-000---00-000---00-000-----|-0-|


Written by Sorry For The Silence, Tabbed Michael Muccioli


variations - click chord images
Transpose chords:
Tuning:
Cool service:
View: Size:
A  A  A
Rating:
Layout:
  • Currently 0/5 Stars.
  • 1
  • 2
  • 3
  • 4
  • 5
 
Accuracy:
  • Currently 2.6/5 Stars.
  • 1
  • 2
  • 3
  • 4
  • 5
 
click stars to rate
Chordie recommends:
Check out these online guitar lessons
Songbook:
Login to add this song to your songbook
Support the artist
Preview/buy this song
MSN Music
Why this non-profit ad?

 
login to add comments/video/corrections