Guitar Tabs, Chords and Lyrics


Savage Beast   Misc. Unsigned Bands



-------------------------------------------------------------------------------

	       The Savage Beast - mysterious black minds of disaster
-------------------------------------------------------------------------------
Tabbed by:ALEX K.AKA:SLASHER
Email:MBMODBAND@YAHOO.COM


| /  slide up
| \  slide down
| h  hammer-on
| p  pull-off
| ~  vibrato
| +  harmonic
| x  Mute note
| w  wammy
| T  twice
=======================================================================


intro
e|--------------------------------------|
B|--------------------------------------|
D|--------------------------------------|
A|--2-3-2-3-3-4-3-4-2-3-2-3-------------|
E|-0---0---0---0---0---0----------------|

e|---------------------------------------|
B|---------------------------------------|
G|---------------------------------------|
D|--3-4-3-4-2-3-3-4-0-2-3-4-0------------|
A|-o---0---0---0----o-2-3-4-o------------|
E|---------------------------------------|


main
e|-0-3-0-5-0-7-0-7tw-0-5t-0-3t-0w--------|
B|---------------------------------------|
G|---------------------------------------|
D|---------------------------------------|
A|---------------------------------------|
E|---------------------------------------|

e|-------------------------------------|
B|-------------------------------------|
G|-------------------------------------|
D|-------------------------------------|
A|-------------------------------------|
E|-0-3-0w-5-0-7-0-7t-0-5tw-0-3t-0w-----|


e|-------------------------------------------|
B|-------------------------------------------|
G|-------------------------------------------|
D|-0-0-0w-0-0-5-5-5w-5-5-0-0-0w--------------|
A|-0-0-0w-0-0-4-4-4w-4-4-0-0-0w--------------|
E|-0-0-0w-0-0-3-3-3w-3-3-0-0-0w--------------|

e|--------------------------------|
B|--------------------------------|
G|--------------------------------|
D|-0-0-5-5w-5-0-0w----------------|
A|-0-0-4-4w-4-0-0w----------------|
E|-0-0-3-3w-3-0-0w----------------|


solo


e|-----------------------------------|
B|-----------------------------------|
G|-----------------------------------|
D|-----------------------------------|
A|-2-2-3-3-4-4-5-5-6-6-7-7-7w--------|
E|1-1-2-2-3-3-4-4-5-5-6-6--7w--------|


e|----------------------------------|
B|----------------------------------|
G|----------------------------------|
D|----------------------------------|
A|-6-6-5-5-4-4-3-3-2-2-1-1-1w-------|
E|7-7-6-6-5-5-4-4-3-3-2-2--1w-------|

main 2

e|-0-3-0w-5-0-7-0w-7T-0-5Tw-0-3Tw-0-----|
B|--------------------------------------|
G|--------------------------------------|
D|--------------------------------------|
A|--------------------------------------|
E|--------------------------------------|

E|---------------------------------------|
B|---------------------------------------|
G|---------------------------------------|
D|---------------------------------------|
A|---------------------------------------|


Important: The song above is NOT stored on the Chordie server. The original song is hosted at www.guitaretab.com. Chordie works as a search engine and provides on-the-fly formatting. Chordie does not index songs against artists'/composers' will. To remove this song please click here.

This song is displayed as text-only. Transposing and tuning is only available for chordpro-songs.

Login - add to songbook

Rating click stars to rate

Layout
Accuracy

SHARE PAGE  




You need to log in to post comments