Guitar Tabs, Chords and Lyrics


Permit To Rock   Misc. Unsigned Bands



Permit to Rock
By: Crash

INTRO

e------------------------------------|
b------------3-3---------------------|
g-2-2--------2-2-5--5----------------|
d-2-2-2-2-2--0-0-5--5----------------|
a-0-0-0-3-4--0-0-3--3----------------|
E------------------------------------|

VERSE

e-----------|--------------|
b-----------|-3-3----------|
g-2-2-------|-2-2-5--5-----|8x
d-2-2-2-2-2-|-0-0-5--5-----|
a-0-0-0-3-4-|-0-0-3--3-----|
E-----------|--------------|

on 8th time (Pre-Chorus)
e-----------|------------------------|
b-----------|-3-3--------------------|
g-2-2-------|-2-2-5------------------|
d-2-2-2-2-2-|-0-0-5------------------|
a-0-0-0-3-4-|-0-0-3------------------|
E-----------|------------------------|

CHORUS

e-----------3-----|-----------------------|
b-3---------3-----|-----------------------|
g-2--2------0---5-|-5-5--2--2--5-5--2--2--|4x
d-0--2--x-x-0---5-|-5-5--2--2--5-5--2--2--|
a-0--0--x-x-x---3-|-3-3--0--0--3-3--0--0--|
E-2---------3-----|-----------------------|


on 4th time        this part 2x
e-----------3---|-----------------------|
b-3---------3---|-----------------------|
g-2--2------0-5-|-5-5--2--2--5-5--2--2--|
d-0--2--x-x-0-5-|-5-5--2--2--5-5--2--2--|
a-0--0--x-x-x-3-|-3-3--0--0--3-3--0--0--|
E-2---------3---|-----------------------|

VERSE

e-----------|--------------|
b-----------|-3-3----------|
g-2-2-------|-2-2-5--5-----|4x
d-2-2-2-2-2-|-0-0-5--5-----|
a-0-0-0-3-4-|-0-0-3--3-----|
E-----------|--------------|

on 8th time (Pre-Chorus)
e-----------|------------------------|
b-----------|-3-3--------------------|
g-2-2-------|-2-2-5------------------|
d-2-2-2-2-2-|-0-0-5------------------|
a-0-0-0-3-4-|-0-0-3------------------|
E-----------|------------------------|

CHORUS

e-----------3-----|-----------------------|
b-3---------3-----|-----------------------|
g-2--2------0---5-|-5-5--2--2--5-5--2--2--|4x
d-0--2--x-x-0---5-|-5-5--2--2--5-5--2--2--|
a-0--0--x-x-x---3-|-3-3--0--0--3-3--0--0--|
E-2---------3-----|-----------------------|

BRIDGE

e--------------------|
b-8-8-7-----8-8-7-8~-|
g-7-7-7-----7-7-7-7~-|3x
d-------9~~----------|
a--------------------|
E--------------------|

then

e--------------------------|
b-8-8-7-----8-8-7----------|
g-7-7-7-----7-7-7----------|
d-------9~~-------x

Important: The song above is NOT stored on the Chordie server. The original song is hosted at www.guitaretab.com. Chordie works as a search engine and provides on-the-fly formatting. Chordie does not index songs against artists'/composers' will. To remove this song please click here.

This song is displayed as text-only. Transposing and tuning is only available for chordpro-songs.

Login - add to songbook

Rating click stars to rate

Layout
Accuracy

SHARE PAGE  




You need to log in to post comments