Guitar Tabs, Chords and Lyrics


Special Design   Misc. Unsigned Bands



Artist: 420 Proof
Song: Special Design
Album: Here's Your Proof (October 31st, 2008)
Tuning: Drop D

Intro
|------------------|---------------|
|------------------|---------------|
|-5555555555555555-|---------------|
|-xxxxxxxxxxxxxxxx-|-2-2----2-2----|
|-3333333333333333-|-2-2----2-2----|
|------------------|-0-0----0-0----|

Verse
|---------------------------------|
|---------------------------------|
|---------------------------------|
|-3-3-3-3-3-3-3-3-2-2-2-2-2-2-2-2-|
|-x-x-x-x-x-x-x-x-2-2-2-2-2-2-2-2-|
|-3-3-3-3-3-3-3-3-0-0-0-0-0-0-0-0-|

Chorus (Chords)
|-------------------------------------|
|-------------------------------------|
|-------------------3-----------------|
|-2--------5--------3--------1--------|
|-2--------5--------1--------1--------|
|-0--------3--------1--------1--------|

Interlude During Talking
|--------------|
|-----------|
|-2---------|
|-2---------|
|-0------------|

Bridge 1
|---------------------------------|---------|
|---------------------------------|---------|
|---------------------------------|---------|
|-2-2-x-x-2-2-x-x-2-2-x-x-2-2-x-x-|-2-2-2-2-|
|-2-2-x-x-2-2-x-x-2-2-x-x-2-2-x-x-|-2-2-2-2-|
|-0-0-x-x-0-0-x-x-0-0-x-x-0-0-x-x-|-0-0-0-0-|
                                    . . . .

Bridge 2 (Chords)
|-------------------------------------|
|-------------------------------------|
|-------------------------------------|
|-3--------7--------5--------5--------|
|-3--------7--------5--------5--------|
|-1--------0--------0--------3--------|

Outro
|---------------------------|
|---------------------------|
|---------------------------|
|-2--2-2-5--3-5-3h5-3h5-3h5-|
|-2--2-2-5--3-5-------------|
|-0--0-0-3--0-0-------------|

Lyrics:

Burning through, cut a noose
In a special design
Time to blink, what to think
Breaks the mold this time
You don’t have the balls
You can’t make me fall

I’ll never give up
I’ll never bow down
You want to take me on
You’ll hit the ground
You want to fight
You want to go
Time for you to die
Time to lose control

What to think, what to feel
Will help you right
Need to fall, lose it all
You’ll meet your maker tonight
If you want me now
Come and get me (NOW!!!)

You thought you we’re strong
You ain’t seen nothing yet
I’m bringing my gull
Fucking stronger than all
You threatened my whole family
Now you’re as good as dead
Time for you to die
Sleep well in the bed you made
You’ll meet your maker tonight

You thought you could take me on


Important: The song above is NOT stored on the Chordie server. The original song is hosted at www.guitaretab.com. Chordie works as a search engine and provides on-the-fly formatting. Chordie does not index songs against artists'/composers' will. To remove this song please click here.

This song is displayed as text-only. Transposing and tuning is only available for chordpro-songs.

Login - add to songbook

Rating click stars to rate

Layout
Accuracy

SHARE PAGE  




You need to log in to post comments