Guitar Tabs, Chords and Lyrics


Simple   Misc. Unsigned Bands



-------------------------------------------------------------------------------
			     Intro to SImple- Karl Mohr
-------------------------------------------------------------------------------
Tabbed by:
Email:

Tuning:

e|-------------------------------------------------------------------------|
B|-------------------------------------------------------------------------|
G|-------------------------------------------------------------------------|
D|--5--55-------------9--99------------------------------------------------|
A|--3--33--5--555555--7--77--2--222222-------------------------------------|
E|---------3--333333---------0--000000-------------------------------------|

e|-------------------------------------------------------------------------|
B|-------------------------------------------------------------------------|
G|-------------------------------------------------------------------------|
D|--5--55-------------9--99------------------------------------------------|
A|--3--33--5--555555--7--77--2--222222-------------------------------------|


Important: The song above is NOT stored on the Chordie server. The original song is hosted at www.guitaretab.com. Chordie works as a search engine and provides on-the-fly formatting. Chordie does not index songs against artists'/composers' will. To remove this song please click here.

This song is displayed as text-only. Transposing and tuning is only available for chordpro-songs.

Login - add to songbook

Rating click stars to rate

Layout
Accuracy

SHARE PAGE  




You need to log in to post comments