Guitar Tabs, Chords and Lyrics


Famous   Misc. Unsigned Bands



--------------------55-----77-------------|
------------33------55-----77-------------|
------------33------55-----77-------------|
--55----------------33-----55-------------|
--55--------33------33-----55-------------|
--33--------------------------------------|

--------------------55-----77-------------|
------------33------55-----77-------------|
------5p3---33------55-----77-------------|
--55-----5h---------33-----55-------------|
--55--------33------33-----55-------------|


Important: The song above is NOT stored on the Chordie server. The original song is hosted at www.guitaretab.com. Chordie works as a search engine and provides on-the-fly formatting. Chordie does not index songs against artists'/composers' will. To remove this song please click here.

This song is displayed as text-only. Transposing and tuning is only available for chordpro-songs.

Login - add to songbook

Rating click stars to rate

Layout
Accuracy

SHARE PAGE  




You need to log in to post comments