Guitar Tabs, Chords and Lyrics


Torturame   Misc. Unsigned Bands



any question mail me : facum.a_91@hotmail.com

intro

---------------------------------|
---------------------------------|
---------------------------------|
-6-6-6-6-4-4-4-4-8-8-8-8-6-6-6-6-|
-6-6-6-6-4-4-4-4-8-8-8-8-6-6-6-6-|  X2
-4-4-4-4-2-2-2-2-6-6-6-6-4-4-4-4-|

pm--------------------------------


VERSE----1

------------------------------------|
------------------------------------|
------------------------------------|
-6-6-6-6-4-4-4-4-8-8-8-8-6-6-6-6----|
-6-6-6-6-4-4-4-4-8-8-8-8-6-6-6-6----|  X2
-4-4-4-4-2-2-2-2-6-6-6-6-4-4-4-4----|
pm----------------------------------|


------------------------------------|
------------------------------------|
------------------------------------|
-6-6-6-6-4-4-4-4-8-8-8-8-11-11-11---|
-6-6-6-6-4-4-4-4-8-8-8-8-11-11-11---|  X2
-4-4-4-4-2-2-2-2-6-6-6-6-9-9-9-9----|


---------------------------------|
---------------------------------|
---------------------------------|
-6-6-6-6-4-4-4-4-8-8-8-8-6-6-6-6-|
-6-6-6-6-4-4-4-4-8-8-8-8-6-6-6-6-|  X2
-4-4-4-4-2-2-2-2-6-6-6-6-4-4-4-4-|

CHORUS


---------------------------------|
---------------------------------|
-6-6-6-6-8-8-8-8-----------------|
-6-6-6-6-8-8-8-8-8-8-8-8-8-8-8-8-| X2
-4-4-4-4-6-6-6-6-8-8-8-8-8-8-8-8-|
-----------------6-6-6-6-6-6-6-6-|

---------------------------------|
---------------------------------|
-6-6-6-6-8-8-8-8-----------------|
-6-6-6-6-8-8-8-8-4-4-4-4-4-4-4-4-|
-4-4-4-4-6-6-6-6-4-4-4-4-4-4-4-4-|
-----------------2-2-2-2-2-2-2-2-|


---------------------------------|
---------------------------------|
-6-6-6-6-8-8-8-8-----------------|
-6-6-6-6-8-8-8-8-4~--44--44--44--|
-4-4-4-4-6-6-6-6-4~--44--44--44--|
-----------------2~--22--22--22--|


VERSE----2

------------------------------------|
------------------------------------|
------------------------------------|
-6-6-6-6-4-4-4-4-8-8-8-8-6-6-6-6----|
-6-6-6-6-4-4-4-4-8-8-8-8-6-6-6-6----|  X2
-4-4-4-4-2-2-2-2-6-6-6-6-4-4-4-4----|
pm----------------------------------|


------------------------------------|
------------------------------------|
------------------------------------|
-6-6-6-6-4-4-4-4-8-8-8-8-11-11-11---|
-6-6-6-6-4-4-4-4-8-8-8-8-11-11-11---|  X2
-4-4-4-4-2-2-2-2-6-6-6-6-9-9-9-9----|


---------------------------------|
---------------------------------|
---------------------------------|
-6-6-6-6-4-4-4-4-8-8-8-8-6-6-6-6-|
-6-6-6-6-4-4-4-4-8-8-8-8-6-6-6-6-|  X2
-4-4-4-4-2-2-2-2-6-6-6-6-4-4-4-4-|


CHORUS 2


---------------------------------|
---------------------------------|
-6-6-6-6-8-8-8-8-----------------|
-6-6-6-6-8-8-8-8-8-8-8-8-8-8-8-8-| X2
-4-4-4-4-6-6-6-6-8-8-8-8-8-8-8-8-|
-----------------6-6-6-6-6-6-6-6-|

---------------------------------|
---------------------------------|
-6-6-6-6-8-8-8-8-----------------|
-6-6-6-6-8-8-8-8-4-4-4-4-4-4-4-4-|
-4-4-4-4-6-6-6-6-4-4-4-4-4-4-4-4-|
-----------------2-2-2-2-2-2-2-2-|


---------------------------------|
---------------------------------|
-6-6-6-6-8-8-8-8-----------------|
-6-6-6-6-8-8-8-8-4~--44--44--44--|
-4-4-4-4-6-6-6-6-4~--44--44--44--|
-----------------2~--22--22--22--|

BRIDGE

----------------------------------|
----------------------------------|
---------6-6-6-6--------/-8-8-8-8-|
-8-8-8-8-6-6-6-6-4-4-4-4/-8-8-8-8-| X2
-8-8-8-8-4-4-4-4-4-4-4-4/-6-6-6-6-|
-6-6-6-6---------2-2-2-2/---------|


-------------------------------------------------------------|
-------------------------------------------------------------|
---------6-6-6-6-------------------------6-6-6-6-------------|
-8-8-8-8-6-6-6-6-4-4-4-4-4-4-4-4-8-8-8-8-6-6-6-6-4-4-4-4-4-4-|
-8-8-8-8-4-4-4-4-4-4-4-4-4-4-4-4-8-8-8-8-4-4-4-4-4-4-4-4-4-4-|
-6-6-6-6---------2-2-2-2-2-2-2-2-6-6-6-6---------2-2-2-2-2-2-|

end chorus


---------------------------------|
---------------------------------|
-6-6-6-6-8-8-8-8-----------------|
-6-6-6-6-8-8-8-8-8-8-8-8-8-8-8-8-| X2
-4-4-4-4-6-6-6-6-8-8-8-8-8-8-8-8-|
-----------------6-6-6-6-6-6-6-6-|

---------------------------------|
---------------------------------|
-6-6-6-6-8-8-8-8-----------------|
-6-6-6-6-8-8-8-8-4-4-4-4-4-4-4-4-|
-4-4-4-4-6-6-6-6-4-4-4-4-4-4-4-4-|
-----------------2-2-2-2-2-2-2-2-|


-----------------------------------|
-----------------------------------|
-6-6-6-6-8-8-8-8-------------------|
-6-6-6-6-8-8-8-8-4~--44--44--44/66-|
-4-4-4-4-6-6-6-6-4~--44--44--44/66-|


Important: The song above is NOT stored on the Chordie server. The original song is hosted at www.guitaretab.com. Chordie works as a search engine and provides on-the-fly formatting. Chordie does not index songs against artists'/composers' will. To remove this song please click here.

This song is displayed as text-only. Transposing and tuning is only available for chordpro-songs.

Login - add to songbook

Rating click stars to rate

Layout
Accuracy

SHARE PAGE  




You need to log in to post comments