Guitar Tabs, Chords and Lyrics


Dont Hold Back Acoustic  Misc. Unsigned Bands

          [Bsus2]               [Bm]            
E|--------2-----x-x-x-x--2-x-x-2--|
B|--------2h-3—-x-x-x-x--3-x-x-3--|
G|--------4---—-x-x-x-x--4-x-x-4--|        X2
D|--------4--—--x-x-x-x--4-x-x-4--|
A|--------2-----x-x-x-x--2-x-x-2--|
E|--------2-----x-x-x-x--2-x-x-2--|


          [Asus2]               [A]            
E|--------0-----x-x-x-x--0-x-x-0--|
B|--------0h-2--x-x-x-x--2-x-x-2--|
G|--------2-----x-x-x-x--2-x-x-2--|        X2
D|--------2-----x-x-x-x--2-x-x-2--|
A|--------0-----x-x-x-x--0-x-x-0--|
E|--------0-----x-x-x-x--0-x-x-0--|

x
          [E]  [add11]             [E]            
(meant to be a Esus2 to E, but I'm lazy)
E|--------0-----x-x-x-x--0-x-x-0--|
B|--------0-----x-x-x-x--0-x-x-0--|
G|--------1-----x-x-x-x--1-x-x-1--|        X2
D|--------2-----x-x-x-x--2-x-x-2--|
A|--------0h-2--x-x-x-x--2-x-x-2--|
E|--------0-----x-x-x-x--0-x-x-0--|


          [Bsus2]               [Bm]            
E|--------2-----x-x-x-x--2-x-x-2--|
B|--------2h-3—-x-x-x-x--3-x-x-3--|
G|--------4---—-x-x-x-x--4-x-x-4--|        X2
D|--------4--—--x-x-x-x--4-x-x-4--|
A|--------2-----x-x-x-x--2-x-x-2--|
E|--------2-----x-x-x-x--2-x-x-2--|



VERSE:

(The original its just C#m, very boring for an acoustic cover)

My version:

I spread the chords in two different ways (each '|' represents the end of a bar):

Bm | Bm | Bm | A E | Bm |

Engage me, I wanna breath the courage of you action...


Bm | A E | Bm |


Don't hold back, let it be for the good...


INSTRUMENTAL BRIDGE:

I haven't included strumming pattern, here are the basic chords and how they fit into
bars (roughly).

         [Bm]       [Asus4]       [A]        [Asus4]     [E] [Asus2] [Bsus4] 
E|-----2--------5--|---0-------5--|---0-------0---|---0-------|
B|-----3--------0--|---2-------0--|---0-------0---|---0-------|
G|-----4--------4--|---2-------4--|---1-------2/--|---2-------|
D|-----4--------0--|---2-------0--|---2-------2/--|---2-------|
A|-----2--------0--|---0-------0--|---2-------0/--|---4-------|
E|-----2-----------|---0----------|---0-------0/--|---4-------|



The last bit I do, with the quiet 'don't hold back's is just another voicing of Bm A E
but I won't bore you with the details; you probably just wanted the original riff anyway,
lol


Questions, comments or if you just want to say hi:
www.myspace.com/alexbelllive

Important: The song above is NOT stored on the Chordie server. The original song is hosted at www.guitaretab.com. Chordie works as a search engine and provides on-the-fly formatting. Chordie does not index songs against artists'/composers' will. To remove this song please click here.

Text color:
Chord color:
Chord grids: 
Font size:    
Page size: 

A Asus2 Asus4 Bm Bsus2 Bsus4 E
variations - click chord images

Login - add to songbook

Transpose chords

Tuning

Rating click stars to rate

Layout
Accuracy

SHARE PAGE  




You need to log in to post comments