Guitar Tabs, Chords and Lyrics


Juice Monkey   Misc. Unsigned Bands



Band:The Only Unknown
Title:Juice Monkey
Album:N/A
Submitter:Juice Monkey

This is the Ultimate Song that my friends and I wrote and the only way to hear this song 
to go to www.youtube.com and search for Juice monkey(4 kids and a guitar) plz comment 
the video!

alright, the tuning is standard and this song is incredibly easy to play so enjoy.

X-palm mute
~let ring

Intro

e-----------------------------------------------------------|
b-----------------------------------------------------------|
g----------------------------9-9-9-9-9-9-9-9----------------|
d-----7-7-7-7-7-7-7-7-7----9-9-9-9-9-9-9-9-9----------------|
a---7-7-7-7-7-7-7-7-7-7---7--7-7-7-7-7-7-7-7----------------|
E--5--5-5-5-5-5-5-5-5-5-------------------------------------|

e-----------------------------------------------------------|
b-----------------------------------------------------------|
g-----4-4-4-4-4-4-4-4------6-6-6-6-6-6-6-6------------------|
d---4-4-4-4-4-4-4-4-4----6-6-6-6-6-6-6-6-6------------------|
a--2--2-2-2-2-2-2-2-2---4--4-4-4-4-4-4-4-4------------------|
E-----------------------------------------------------------|

Verses

e-----------------------------------------------------------|
b-----------------------------------------------------------|
g--------------9-9-9-------4-4-4-------6-6-6----------------|
d--7-7-7-------9-9-9-------4-4-4-------6-6-6----------------|
a--7-7-7-------7-7-7-------2-2-2-------4-4-4----------------|
E--5-5-5----------------------------------------------------|

Chorus

e-----------------------------------------------------------|
b-----------------------------------------------------------|
g----------9-------4-------6--------------------------------|
d--7-------9-x10---4-x10---6-x10----------------------------|
a--7-x10---7-------2-------4--------------------------------|
E--5--------------------------------------------------------|

Outro

e-----------------------------------------------------------|
b-----------------------------------------------------------|
g--6-6-x-x-6-6-x-x-x-x-x-6~---------------------------------|
d--6-6-x-x-6-6-x-x-x-x-x-6~---------------------------------|
a--4-4-x-x-4-4-x-x-x-x-x-4~---------------------------------|
E-----------------------------------------------------------|


intro x1
verse x2
chorus x1
verse x1
chorus x1
verse x1
chorus X2


Important: The song above is NOT stored on the Chordie server. The original song is hosted at www.guitaretab.com. Chordie works as a search engine and provides on-the-fly formatting. Chordie does not index songs against artists'/composers' will. To remove this song please click here.

This song is displayed as text-only. Transposing and tuning is only available for chordpro-songs.

Login - add to songbook

Rating click stars to rate

Layout
Accuracy

SHARE PAGE  




You need to log in to post comments