Guitar Tabs, Chords and Lyrics


Dont Wake Me Up Till Im A War Hero  Misc. Unsigned Bands

e--7+++++--12++++----------------|


B--------------------------------|


G--------------------------------|

D--------------------------------|
A-----------------5-4-2----------|
E--7++++++--------3-2-0+++--3/1--|
e---------------------------------|
B---------------------------------|
G---------------------------------|
D-----------0h1p0-3-1-0-----------|
A-------1---------------3-1-0-----|
E--1-2-3--3-------------------3-1-|
[G]dont wake me up till [a#]im a war [a]hero
[G]when I wake up put a [a#]bullet [a]through my brain
and [G]say that I died on the [a#]front lines [a]again
[G]when I wake up put a [a#]bullet through[a] my skull
[G]when I  wake up your [a#]arms blown [a]off
strum em and e backwards alternatind 2 times
then as power chords b a# a g#


ending
e---------15-15----15-15-----15-15-----------|
B------18b------18b------18b-----------------|
G--------------------------------------------|
D--------------------------------------------|
A-----------------------------------14slide--|
E--1/-------------------------------12down---|



intro
main riffx3
chords
intro
ending

Important: The song above is NOT stored on the Chordie server. The original song is hosted at www.guitaretab.com. Chordie works as a search engine and provides on-the-fly formatting. Chordie does not index songs against artists'/composers' will. To remove this song please click here.

Text color:
Chord color:
Chord grids: 
Font size:    
Page size: 

G
variations - click chord images

Login - add to songbook

Transpose chords

Tuning

Rating click stars to rate

Layout
Accuracy

SHARE PAGE  




You need to log in to post comments