Guitar Tabs, Chords and Lyrics


Crashing   Misc. Unsigned Bands



Artist: Gersey
Song: Crashing
Album: Look Both Ways Soundtrack


TUNING (DADGBE)

|-----------------|-----------------|-----------------|
|-------5---------|---5-----------5-|-----------5-----|
|-----6---6-------|-6---6-------6---|-6-------6---6---|
|---7-------7---7-|-------7---7-----|---7---7-------7-|
|-0-----------0---|-----------------|-----------------|
|-----------------|---------4-------|-----4-----------|

|-----------------|-----------------|-----------------|
|-------5---------|---5-----------5-|-----------5-----|
|-----6---6-------|-6---6-------6---|-6-------6---6---|
|---7-------7---7-|-------7---7-----|---7---7-------7-|
|-----------------|-----------------|-----------------|


Important: The song above is NOT stored on the Chordie server. The original song is hosted at www.guitaretab.com. Chordie works as a search engine and provides on-the-fly formatting. Chordie does not index songs against artists'/composers' will. To remove this song please click here.

This song is displayed as text-only. Transposing and tuning is only available for chordpro-songs.

Login - add to songbook

Rating click stars to rate

Layout
Accuracy

SHARE PAGE  




You need to log in to post comments