Guitar Tabs, Chords and Lyrics


Truth From Lie  Misc. Unsigned Bands

     [Am]            [FM7]             [C]         [CM9/G]             
e|----0-----|-----0-----|-----0-----|----0----|
B|----1-----|-----1-----|-----1-----|----1----|
G|----2-----|-----2-----|-----0-----|----0----|
D|----2-----|-----3-----|-----2-----|----0----|
A|----0-----|-----x-----|-----3-----|----2----|
E|----x-----|-----x-----|-----x-----|----3----|


Intro:
Am, FM7, C, CM9/G X3

e]------------------------------1p0--1p0----[
B]---0h1p0---0h1p0--1p0---1p0-------------0-[
G]--2-------2----------0-----0--------------[
D]-2-------2-------2-----2------------------[
A]----------------3-----3------2----2----0--[
E]----------------------------3----3----0---[


Am, FM7, C, CM9/G

Verse:
[Am]Your gone every friday
[FM7]our old movie night
[C]and at this point
[CM9/G]im wishin i wasnt so bright
[Am]to know whats going[FM7] on
[C]to know whats going[CM9/G] on

Chorus:
[Am]Cross my heart and [FM7]hope to die
[C]if i dont keep this [CM9/G]truth from lie
[Am]So ill keep what i [FM7]know inside
[C]along with in my [CM9/G]mind
[Am]Cross my heart and [FM7]hope to die
[C]if i dont keep this [CM9/G]truth from lie
[Am]So ill keep what i [FM7]know inside
[C]along with in my [CM9/G]mind

Verse 2:
Am, FM7, C, CM9/G X2

[Am]Every night ill
[FM7]look out [C]my [CM9/G]window
[Am]Wait for you to get [FM7]home
so i know that [C]your [CM9/G]alone

[Am]          [FM7]     [C]your [CM9/G]alone
Bridge:
[Am]Cuz if i say [FM7]whats true
[C]your never comin [CM9/G]back
[Am]Love will be [FM7]Love
[C]That will be [CM9/G]that

Chorus:
[Am]Cross my heart and [FM7]hope to die
[C]if i dont keep this [CM9/G]truth from lie
[Am]So ill keep what i [FM7]know inside
[C]along with in my [CM9/G]mind
[Am]Cross my heart and [FM7]hope to die
[C]if i dont keep this [CM9/G]truth from lie
[Am]So ill keep what i [FM7]know inside
[C]along with in my [CM9/G]mind

Verse 3:
Am, FM7, C, CM9/G

[Am]You'll never know [FM7]that
i knew [C]this much is [CM9/G]certain
[Am]when you [FM7]return ill [C]hide
behind the [CM9/G]curtain

Am, FM7, C, CM9/G

e]------0--[
B]-----1---[
G]----0----[
D]---0-----[
A]--2------[
E]-3-------[


Ends With Piano

Important: The song above is NOT stored on the Chordie server. The original song is hosted at www.guitaretab.com. Chordie works as a search engine and provides on-the-fly formatting. Chordie does not index songs against artists'/composers' will. To remove this song please click here.

Text color:
Chord color:
Chord grids: 
Font size:    
Page size: 

Am C Cm9/G Fm7
variations - click chord images

Login - add to songbook

Transpose chords

Tuning

Rating click stars to rate

Layout
Accuracy

SHARE PAGE  




You need to log in to post comments