Guitar Tabs, Chords and Lyrics


Det Snurrar I Min Skalle  Misc. Unsigned Bands

e|----------------------------------------|


B|---8-7----------------------------------|


G|-------7-9-4-----7-5-4-0-0-2-0----------|

D|----------------------------------------|
A|----------------------------------------|
E|----------------------------------------|
e|------------10--10-8-7------------------|
B|---8-7-----------------8-8-10-8---------|
G|-------7-9------------------------------|
D|----------------------------------------|
A|----------------------------------------|
E|----------------------------------------|
e|----------------------------------------|\
B|----------------------------------------| \
G|----------------------------------------| 4x
D|-------5--------5---------5-------5-----| /
A|--------5--------5---------5-------5----| /
E|--3-3-------3-3-------3-3-----3-3-------|/
[G]Jag...., gj[C]orde upp en eld för [E]dig
och nu [D]brinner hela skogen
[G]Nu...., [C]Vet jag vad du kommer att [E]säga
och det [D]känns som första gången
[G]Kom...., [C]Vi visar dom att det är [E]vi
men det [D]visste alla redan
[G]Ut...., [C]springer du iväg med [E]mig
jag hörde [D]hur dom sjunger
Interlude x2

Guitar 1
e|----------------------------------------|
B|----------------------------------------|
G|----------------------------------------|
D|--5-55-5-44-55-7----5-55-5-44-55-2------|
A|----------------------------------------|
E|----------------------------------------|
e|----------------------------------------|
B|----------------------------------------|
G|----------------------------------------|
D|--5-55-5-44-55-7----5-55-5-44-22-0------|
A|----------------------------------------|
E|----------------------------------------|



Guitar 2
Chords like the vers: G – C – E – D x2

Verse 2
[G]Som...., at[C]t allting redan var [E]bestämt
som att jo[D]rden går runt solen
[G]Vem...., ha[C]de kunnat ta min pla[E]ts
han finns [D]ju bara inte


[G]Dom...., pr[C]atar om något underb[E]art
jag är där[D] och kan berätta
[G]Stort...., [C]större än jag någonsin trott
det snurra[D]r i min skalle
Interlude x2


Verse 1
Guitar 2 plays interlude.
[G]Jag...., gj[C]orde upp en eld för [E]dig
och nu [D]brinner hela skogen
[G]Nu...., [C]Vet jag vad du kommer att [E]säga
och det [D]känns som första gången
[G]Kom...., [C]Vi visar dom att det är [E]vi
men det [D]visste alla redan
[G]Ut...., [C]springer du iväg med [E]mig
jag hörde [D]hur dom sjunger
jag hörde hur dom sjunger
jag hörde hur dom sjunger
hörde hur dom sjunger
hörde hur dom sjunger
hörde hur dom sjunger
hörde hur dom sjunger


Outro
e|----------------------------------------|\
B|----------------------------------------| \
G|----------------------------------------|  4x
D|-------5--------5---------5-------5-----|  /
A|--------5--------5---------5-------5----| /
E|--3-3-------3-3-------3-3-----3-3-------|/


Hope you enjoy it.

Important: The song above is NOT stored on the Chordie server. The original song is hosted at www.guitaretab.com. Chordie works as a search engine and provides on-the-fly formatting. Chordie does not index songs against artists'/composers' will. To remove this song please click here.

Text color:
Chord color:
Chord grids: 
Font size:    
Page size: 

C D E G
variations - click chord images

Login - add to songbook

Transpose chords

Tuning

Rating click stars to rate

Layout
Accuracy

SHARE PAGE  




You need to log in to post comments