Guitar Tabs, Chords and Lyrics


Hotel Motel   Misc. Unsigned Bands



                        Hotel Motel By Man*Fuel
                  Album I 2008
     Tabbed By User: AcDcrox74             Enjoy!!
Legend:
/= slide up
\= slide down
~= vibrato
b= bend
h= hammer on
p= pull
r= release
w= whammy bar
   Use Distortion

Intro:
e|-3-3-3/5-5-5/7-7-7\5-5-5\3-3-3--3w-w-ww-|
B|-2-2-2/4-4-4/6-6-6\4-4-4\2-2-2--2w-w-ww-|
G|-2-2-2/4-4-4/6-6-6\4-4-4\2-2-2--2w-w-ww-|
D|----------------------------------------|
A|----------------------------------------|
E|----------------------------------------|

Verse 1:

e|-3-3-3/5-5-5/7-7-7\5-5-5\3-3-3--3-------|
B|-2-2-2/4-4-4/6-6-6\4-4-4\2-2-2--2-------|
G|-2-2-2/4-4-4/6-6-6\4-4-4\2-2-2--2-------|
D|----------------------------------------|
A|----------------------------------------|
E|----------------------------------------|

e|-3-3-3/5-5-5/7-7-7\5-5-5\3-3-3--3-------|
B|-2-2-2/4-4-4/6-6-6\4-4-4\2-2-2--2-------|
G|-2-2-2/4-4-4/6-6-6\4-4-4\2-2-2--2-------|
D|----------------------------------------|
A|----------------------------------------|
E|----------------------------------------|

e|-3-3-3/5-5-5/7-7-7\5-5-5\3-3-3--3-------|
B|-2-2-2/4-4-4/6-6-6\4-4-4\2-2-2--2-------|
G|-2-2-2/4-4-4/6-6-6\4-4-4\2-2-2--2-------|
D|----------------------------------------|
A|----------------------------------------|
E|----------------------------------------|

e|-3-3-3/5-5-5/7-7-7\5-5-5\3-3-3--3ww-w---|
B|-2-2-2/4-4-4/6-6-6\4-4-4\2-2-2--2ww-w---|
G|-2-2-2/4-4-4/6-6-6\4-4-4\2-2-2--2ww-w---|
D|----------------------------------------|
A|----------------------------------------|
E|----------------------------------------|

Chorus:

 G       E         Am      D        A A A(w-w-www-"whammy bar")
Hotel Motel  Rock you all night  BABY!!
 G       E         Am      D        A A AA A(GO CRAZY ON WHAMMY)
Hotel Motel  Rock you all night   BABBBYYY!!

Guitar Solo:

e|-1/12h15p12h14r12h15p14r12~13h16p12h15r13h15r13p13h15p13b14/15-18p17r15--|
B|-------------------------------------------------------------------------|
G|-------------------------------------------------------------------------|
D|-------------------------------------------------------------------------|
A|-------------------------------------------------------------------------|
E|-------------------------------------------------------------------------|

e|-15h17r15h18p15h19r18p16~h20-20-20-20p19r18-17/21-21ww21www-2121-21wwww~b|
B|-------------------------------------------------------------------------|
G|-------------------------------------------------------------------------|
D|-------------------------------------------------------------------------|
A|-------------------------------------------------------------------------|
E|-------------------------------------------------------------------------|
^at the end of the really short guitar solo hit an open low E and push the whammy barr 
really far and hold it for 4 seconds then release.

Verse 2:

e|-3-3-3/5-5-5/7-7-7\5-5-5\3-3-3--3wwww---|
B|-2-2-2/4-4-4/6-6-6\4-4-4\2-2-2--2-------|
G|-2-2-2/4-4-4/6-6-6\4-4-4\2-2-2--2-------|
D|----------------------------------------|
A|----------------------------------------|
E|----------------------------------------|

e|-3-3-3/5-5-5/7-7-7\5-5-5\3-3-3--3-------|
B|-2-2-2/4-4-4/6-6-6\4-4-4\2-2-2--2-------|
G|-2-2-2/4-4-4/6-6-6\4-4-4\2-2-2--2-------|
D|----------------------------------------|
A|----------------------------------------|
E|----------------------------------------|

e|-3-3-3/5-5-5/7-7-7\5-5-5\3-3-3--3-------|
B|-2-2-2/4-4-4/6-6-6\4-4-4\2-2-2--2-------|
G|-2-2-2/4-4-4/6-6-6\4-4-4\2-2-2--2-------|
D|----------------------------------------|
A|----------------------------------------|
E|----------------------------------------|

e|-3-3-3/5-5-5/7-7-7\5-5-5\3-3-3--3---------|
B|-2-2-2/4-4-4/6-6-6\4-4-4\2-2-2--2---------|
G|-2-2-2/4-4-4/6-6-6\4-4-4\2-2-2--2---------|
D|------------------------------------------|
A|------------------------------------------|
E|------------------------------------3p0ww-|

Chorus:

 G       E         Am      D        A A A(w-w-www-"whammy bar")
Hotel Motel  Rock you all night  BABY!!
 G       E         Am      D        A A AA A(GO really!_CRAZY ON WHAMMY)
Hotel Motel  Rock you all night   BABBBYYY!!

Outro:
e|-3-3-3/5-5-5/7-7-7\5-5-5\3-3-3--3-www-ww-www|
B|-2-2-2/4-4-4/6-6-6\4-4-4\2-2-2--2-www-ww-www|
G|-2-2-2/4-4-4/6-6-6\4-4-4\2-2-2--2-www-ww-www|
D|--------------------------------------------|
A|--------------------------------------------|
E|-------------------------------------000x--w|

Additional Verse Lyrics:
Verse1:
Late that night afer thepart we were kicking it up,
but i had to go home,
when i got to my house some people said i had to leave,
my rent was way off,
so i was walking down the road one saturday night,
and a paper blew right into my face,
it said hotel motel suites, so i went to the place!
Chorus:
(words are below chords in tab above)
Verse 2:
When i got to the place i checked into my room,
and when i got to my room it was all nice and bloom,
a bed and tv, it was all for me,
i said this place rocks,
and it gave me a shock!

Song Flow:
Intro
V1
Chorus
Solo
V2
Chorus
Outro


Important: The song above is NOT stored on the Chordie server. The original song is hosted at www.guitaretab.com. Chordie works as a search engine and provides on-the-fly formatting. Chordie does not index songs against artists'/composers' will. To remove this song please click here.

This song is displayed as text-only. Transposing and tuning is only available for chordpro-songs.

Login - add to songbook

Rating click stars to rate

Layout
Accuracy

SHARE PAGE  




You need to log in to post comments