Guitar Tabs, Chords and Lyrics


Take Me Away   Misc. Unsigned Bands



  Good song, really easy, same thing like always, still amazing Chase Coy.

 Take me away, to January......
E-----------------------------------------|
B----3-------3------3---------3--------3--|
G--2--2---2---2---2--2------2--2-----2--2-|
D-----------------------------------------|
A---0------0-------0---------0--------0---|
E-----------------------------------------|


      I just need som time alone.......
E---------------------------------------|
B------3------3---------------------3---|
G---2-----2--------------------2------2-|
D---------------------------------------|
A----0------0-----0--------------0------|
E---------------------------------------|


E---------------------|
B------3----5---3-----|
G--2--------------2---|
D---------------------|
A----0--------------0-|
E---------------------|


          There's gotts be....
E-----------------------------------------|
B----3-------3------3---------3--------3--|
G--2--2---2---2---2--2------2--2-----2--2-|
D-----------------------------------------|
A---0------0-------0---------0--------0---|
E-----------------------------------------|

      There's more than this mid-western town...
E---------------------------------------|
B------3------3---------------------3---|
G---2-----2--------------------2------2-|
D---------------------------------------|
A----0------0-----0--------------0------|
E---------------------------------------|


E---------------------|
B------3----5---3-----|
G--2--------------2---|
D---------------------|
A----0--------------0-|
E---------------------|


So I tell myself...

E--------------|
B--------3-----|
G---2--2-------|
D--------------|
A----0-------0-|
E--------------|


 Chourus

    There's a girl out on.........
E--0----------0--------0--------2-------0--------------0-|
B--3----------3--------3--------3-------3--------------3-|
G--2----------2--------2--------2-------2--------------2-|
D--0----------4--------0--------4-------0--------------4-|
A--0----------5--------0--------5-------0--------------5-|
E--------------------------------------------------------|


E--------------|
B--------3-----|
G---2--2-------|
D--------------|
A----0-------0-|
E--------------|


  All of this again, until after the second chorus. He does the same chords but stumrs 


Important: The song above is NOT stored on the Chordie server. The original song is hosted at www.guitaretab.com. Chordie works as a search engine and provides on-the-fly formatting. Chordie does not index songs against artists'/composers' will. To remove this song please click here.

This song is displayed as text-only. Transposing and tuning is only available for chordpro-songs.

Login - add to songbook

Rating click stars to rate

Layout
Accuracy

SHARE PAGE  




You need to log in to post comments