Guitar Tabs, Chords and Lyrics


Sunday Flower  Misc. Unsigned Bands

e|---------------------------------------------------------------|


B|---------------------------------------------------------------|


G|---------------------------------------------------------------|

D|3-3-3-3-3-3-3-3------------------------------------------------|
A|----------------3-3-3-3-3-3-3-3-1-1-1-1-1-1-1-1----------------|
E|------------------------------------------------3-3-3-3-3-3-3-3|
e|-------------------------------------------------------------------|
B|-------------------------------------------------------------------|
G|-------------------------------------------------------------------|
D|-------------------------------------------------------------------|
A|1-1-1-3-3-3-5-5--1-1-1-3-3-3-5-5--1-1-1-3-3-3-5-5--6-6-6-5-5-5-3-3-|
E|-------------------------------------------------------------------|
[A#]Can't figure out [C]the way your are
[G]It's like I'm [D#]chasing after stars
[A#]You hang your [C]shoulders on the moon
[G]I guess it's [D#]time your leaving soon
Pre-Chorus:(x2)
[A#]You tone down (tone down)
[C]Don't frown (don't frown)
[G]You're outta town
And ya [G]come around

Riff 1 (x1)

Verse 2:
[A#]Your eyes like [C]fire they burn me up
[G]This time I know [D#]I've had enough
[A#]The page we spent [C]has left me sour
[G]And now you're gone [D#]my Sunday flower

Pre-Chorus(x2)

Chorus:(x2)
[A#]Anyways these are [C]timeless days
[G]Please don't [D#]fade away
[A#]I guess I'll [G]see you next Sunday

Verse 3:(x4)
[A#]Don't get caught in the [C]downslide

Riff 2: (Played on A)
1-1-1-1-1-1-1-1-6-6-6-5-5-5-3-3


*No Playing*
Anyways these are timeless days
Please don't fade away
I guess I'll see you next Sunday

Chorus (x1)

(Repeat 4x)
[A#]Don't get caught in the [C]downslide
(Repeat 4x)
[G]Don't get caught in the [D#]downslide

*let last chord ring*

Important: The song above is NOT stored on the Chordie server. The original song is hosted at www.guitaretab.com. Chordie works as a search engine and provides on-the-fly formatting. Chordie does not index songs against artists'/composers' will. To remove this song please click here.

Text color:
Chord color:
Chord grids: 
Font size:    
Page size: 

A# C D# G
variations - click chord images

Login - add to songbook

Transpose chords

Tuning

Rating click stars to rate

Layout
Accuracy

SHARE PAGE  




You need to log in to post comments