Guitar Tabs, Chords and Lyrics


Lord Kromdar The Invensable   Misc. Unsigned Bands



Aghast (north-east tennessee)
Chaotic Underworld records

Lord Kramdar, the invencable
intro

I will finish the rest soon. I promise. - Adam Aghast

Start riff with up stroke.

|-----------------------------------------------|
|-----------------------------------------------|
|-----------------------------------------------|
|-3-3\4--4-4\5--3-3\4--4-4\5--2-2--3-3\4--4-4\5-|
|--------3-3\4---------3-3\4--2-2---------3-3\4-|
|-1-1\2--2-2\3--1-1\2--2-2\3--0-0--1-1\2--2-2\3-|

|---------------------------------|
|---------------------------------|
|---------------------------------|
|-3-3\4--4-4\5--3-3\4---2---------|
|--------3-3\4----------2---------|


Important: The song above is NOT stored on the Chordie server. The original song is hosted at www.guitaretab.com. Chordie works as a search engine and provides on-the-fly formatting. Chordie does not index songs against artists'/composers' will. To remove this song please click here.

This song is displayed as text-only. Transposing and tuning is only available for chordpro-songs.

Login - add to songbook

Rating click stars to rate

Layout
Accuracy

SHARE PAGE  




You need to log in to post comments