Guitar Tabs, Chords and Lyrics


Face In The Window   Misc. Unsigned Bands



This is the first solo on my own song "Face in the Window". Its very easy.

~=Vibrato

E||-----------0-------------------------5-4-------|
B||----0--------------0---------6------------3----|
G||--------------------------7-----5--------------|
D||-----------------------------------------------|
A||-----------------------------------------------|
E||-0-----0-------0------0------------------------|


E||----0------------------------------------------|
B||-------0---------------------------------------|
G||-4---------5-----------------------------------|
D||---------------5-7------9-----9-8-7------------|
A||--------------------8-9---8-9--------8-10------|
E||-----------------------------------------------|

E||-----------------------------------------------|
B||-----------------------------------------------|
G||-----------------------------------------------|
D||-8-9--12---------12~---------------------------|
A||-----------------------------------------------|


Important: The song above is NOT stored on the Chordie server. The original song is hosted at www.guitaretab.com. Chordie works as a search engine and provides on-the-fly formatting. Chordie does not index songs against artists'/composers' will. To remove this song please click here.

This song is displayed as text-only. Transposing and tuning is only available for chordpro-songs.

Login - add to songbook

Rating click stars to rate

Layout
Accuracy

SHARE PAGE  




You need to log in to post comments