Guitar Tabs, Chords and Lyrics


Brothers In Arms   Misc. Unsigned Bands



For the Fallen Dreams
Brothers In Arm
Changes 2008

Tabbed By:Tyler Rosier
120 BPM

Tuning: Drop A#

|-----------------------------------------------|
|-------------------------------11-10----10-11--|
|-------------------------------------10--------|
|--0--------------------------------------------| x2 
|--0------(000000-0--0--0--0)-------------------|
|--0------(000000-0--0--0--0)-------------------|
           x x xxxx x  x  x  x

|-----------------------------------------------------------------------|
|----------------------------------------------13-10----11-10----11-10--|
|----------------------------------------------------10-------10--------|
|--0---------------7------------7---------------------------------------|  x4
|--0---------------8------------8---------------------------------------|
|--0---0000-0-0-00---000000-0-0---0000-0-0-000--------------------------|
       xxxx x x xx   xxxxxx x x   xxxx x x xxx

|------------------------------------|
|------------------------------------|
|------------------------------------|
|--0-------Drum Fill-----------------|
|--0---------------------------------|
|--0---------------------------------|

|---------------------------------------------------------------------------|
|------------------11-10----11-10---------------------10h13p10--11----10-6--|
|------------------------10-------10-------------------------------10-------|
|--0----------7-7---------------------0----------7-7------------------------|
|--0----------8-8---------------------0----------8-8------------------------|
|--0--000-0-0-------------------------0--000-0-0----------------------------|
      xxx x x                            xxx x x

|-------------------------------------------------|
|-------------------------------------------------|
|-------------------------------------------------|
|-------------------------------------------------| x4
|--0-----------------3/5---5/7/8\7------------\1--|
|--0-0-0-0-0-0-0-0-0-----0------------------------|
     x x x x x x x x     x

Breakdown
|--------------------------------------------------|
|--------------------------------------------------|
|--------------------------------------------------|
|--------------------------------------------------| x2
|-------------------------------------------1-1-0--|
|--0-0-0-0-000-0-0-0-0-0-000-0-0-0-0-0-000--1-1-0--|
   x x x x xxx x x x x x xxx x x x x x xxx  

|------------------------------------------------|
|------------------------------------------------|
|------------------------------------------------|
|------------------------------------------------| x2
|-------------------1-1--------------------------|
|--1^-0-0-0-0-0-0-0-1-1-0-0-0-0-0-0-3-1-0-1-3-4--|
      x x x x x x x       x x x x x 

|---------------------------------------------|
|--------------------13-10----11-10----11-10--|
|--------------------------10-------10--------|
|---------------------------------------------|
|---------------------------------------------|
|--1^-0-0-0-0-0-0-0---------------------------|
        x x x x x x 

|-----------------------------------------------------------------------|
|----------------------------------------------13-10----11-10----11-10--|
|----------------------------------------------------10-------10--------|
|--0---------------7------------7---------------------------------------|  x4
|--0---------------8------------8---------------------------------------|
|--0---0000-0-0-00---000000-0-0---0000-0-0-000--------------------------|
       xxxx x x xx   xxxxxx x x   xxxx x x xxx

|--------------|
|--------------|
|--------------|
|--0-----------|
|--0-----------|
|--0-----------|


Important: The song above is NOT stored on the Chordie server. The original song is hosted at www.guitaretab.com. Chordie works as a search engine and provides on-the-fly formatting. Chordie does not index songs against artists'/composers' will. To remove this song please click here.

This song is displayed as text-only. Transposing and tuning is only available for chordpro-songs.

Login - add to songbook

Rating click stars to rate

Layout
Accuracy

SHARE PAGE  




You need to log in to post comments