Guitar Tabs, Chords and Lyrics


I Dont Know   Misc. Unsigned Bands



|--------------|   |--------------|
|--------------|   |--------------| x2
|---------5----|   |--------------|
|---7-5-7---7--|   |---7-5-7--5-3-|
|-0------------|   |-0------------|    


|--------------|   |---------------------------------------------|
|--------------|   |-------------------------------------------2-| 
|---------5----|   |-------------------------------------------0-|
|---7-5-7---7--|   |---7-5-7--5-3-12-12-12-12-12-12-12-12-12--12-|


Important: The song above is NOT stored on the Chordie server. The original song is hosted at www.guitaretab.com. Chordie works as a search engine and provides on-the-fly formatting. Chordie does not index songs against artists'/composers' will. To remove this song please click here.

This song is displayed as text-only. Transposing and tuning is only available for chordpro-songs.

Login - add to songbook

Rating click stars to rate

Layout
Accuracy

SHARE PAGE  




You need to log in to post comments