Guitar Tabs, Chords and Lyrics


Song Forgotten Acoustic  Misc. Unsigned Bands

D-Dsus-D-Dsus-D-A-G-Dsus-D 

[D-Dsus-D-A-G]the ff. tab for plucking..
   [D]  [Dsus]     [D]   [Dsus-D]          [A]        [G]    [Dsus-D]                       
e---2-3-2-------3-2------------3--------3-2---|
B---3-3-3--- -3-----3--2-----2-3------3-------|
G---2-2-2---2----------2---2---0----2---------|
D---------0------------2-2-----0--0-----------|
A------------------------------2--------------|
E------------------------------3--------------|


   [D]  [Dsus]     [D]   [Dsus-D]          [A]        [G]                           
e---2-3-2-------3-2------------3-----|
B---3-3-3--- -3-----3--2-----2-3-----|
G---2-2-2---2----------2---2---0-----|
D---------0------------2-2-----0-----|
A------------------------------2-----|
E------------------------------3-----|


intro for strum...
D-A-G (2x)

VERSE
There was a[D] time when all was per[A]fect
no w[Bm]orries, but now that's blu[G-A]rry
We had some[D]thing that no one[A] had
but it's [Bm]all gone now, ain't that s[G-A]o sad


REFRAIN
He came al[D]ong, took you a[Dsus]way,
he opened his a[Bm]rms wide, there you s[A-G]tayed
You sm[D]iled, and waved go[Dsus]odbye,
and for the las[Bm]t time, I looked in yo[A-G]ur eyes    [Dsus-D-Dsus]


CHORUS
Love can f[D]ade, can break [Dsus]away,
can be fo[Bm]rgotten, but n[A-G]ot replaced
You might lo[D]se hope, you might lose[Dsus] faith
but d[Bm]on't throw it [A-G]all away, caus[A]e your afraid


note: 2 way to play either plucking or strumming?..

intro for plucking.....
D-Dsus-D-Dsus-D-A-G-Dsus-D 

[D-Dsus-D-A-G]the ff. tab for plucking..
   [D]  [Dsus]     [D]   [Dsus-D]          [A]        [G]    [Dsus-D]                       
e---2-3-2-------3-2------------3--------3-2---|
B---3-3-3--- -3-----3--2-----2-3------3-------|
G---2-2-2---2----------2---2---0----2---------|
D---------0------------2-2-----0--0-----------|
A------------------------------2--------------|
E------------------------------3--------------|


   [D]  [Dsus]     [D]   [Dsus-D]          [A]        [G]                           
e---2-3-2-------3-2------------3-----|
B---3-3-3--- -3-----3--2-----2-3-----|
G---2-2-2---2----------2---2---0-----|
D---------0------------2-2-----0-----|
A------------------------------2-----|
E------------------------------3-----|


intro for strum...
D-A-G (2x)

VERSE
Now all I a[D]sk, is for him to c[A]are
for him to treat [Bm]you like I were a[G-A]lways there
But please don't lo[D]ve him, come back to [A]me
I'm b[Bm]egging you, I'm on m[G-A]y knees


REFRAIN
He came al[D]ong, took you a[Dsus]way,
he opened his a[Bm]rms wide, there you s[A-G]tayed
You sm[D]iled, and waved go[Dsus]odbye,
and for the las[Bm]t time, I looked in yo[A-G]ur eyes    [Dsus-D-Dsus]


CHORUS
Love can f[D]ade, can break [Dsus]away,
can be fo[Bm]rgotten, but n[A-G]ot replaced
You might lo[D]se hope, you might lose[Dsus] faith
but d[Bm]on't throw it [A-G]all away, caus[A]e your afraid


D-A-Bm-G 2X

CHORUS
Love can f[D]ade, can break [Dsus]away,
can be fo[Bm]rgotten, but n[A-G]ot replaced
You might lo[D]se hope, you might lose[Dsus] faith
but d[Bm]on't throw it [A-G]all away,


CHORUS
Love can f[D]ade, can break [Dsus]away,
can be fo[Bm]rgotten, but n[A-G]ot replaced
You might lo[D]se hope, you might lose[Dsus] faith
but d[Bm]on't throw it [A-G]all away,
but d[Bm]on't throw it [A-G]all away,
but d[Bm]on't throw it [A-G]all away, cau[A]se your afraid

note: 2 way to play either plucking or strumming?..

intro for plucking.....
D-Dsus-D-Dsus-D-A-G-Dsus-D 

[D-Dsus-D-A-G]the ff. tab for plucking..
   [D]  [Dsus]     [D]   [Dsus-D]          [A]        [G]    [Dsus-D]                      
e---2-3-2-------3-2------------3--------3-2---|
B---3-3-3--- -3-----3--2-----2-3------3-------|
G---2-2-2---2----------2---2---0----2---------|
D---------0------------2-2-----0--0-----------|
A------------------------------2--------------|
E------------------------------3--------------|


   [D]  [Dsus]     [D]   [Dsus-D]          [A]        [G]                          
e---2-3-2-------3-2------------3-----|
B---3-3-3--- -3-----3--2-----2-3-----|
G---2-2-2---2----------2---2---0-----|
D---------0------------2-2-----0-----|
A------------------------------2-----|
E------------------------------3-----|


intro for strum...
D-A-G (2x)


Important: The song above is NOT stored on the Chordie server. The original song is hosted at www.guitaretab.com. Chordie works as a search engine and provides on-the-fly formatting. Chordie does not index songs against artists'/composers' will. To remove this song please click here.

Text color:
Chord color:
Chord grids: 
Font size:    
Page size: 

A Bm D Dsus Dsus-D G G-A
variations - click chord images

Login - add to songbook

Transpose chords

Tuning

Rating click stars to rate

Layout
Accuracy

SHARE PAGE  




You need to log in to post comments