Guitar Tabs, Chords and Lyrics


Martins Gay   Misc. Unsigned Bands



Bra I got the most of it down learn this for next time we jam!!!! I'm still adding to it 
messing around but I really like this one.

-Breakdown-

Intro
Verse
Chorus
Verse
Chorus
Bridge
Chorus
Outro (Not Sure If I Wanna Keep It Yet But Practice it to get it down)

Intro

e---------------*12*-----------------|
B---------------*12*-----------------|
G---------------*12*-----------------|    X4
D---------------*12*-----------------|
A---------------*12*-----------------|
E-7777---7777---*12*---7/------------|

Verse
(THOSE ARE 10'S NOT 1'S AND 0'S)
e--------------------------------------------------------|
B--------------------------------------------------------|
G--------------------------------------------------------|    X4
D--------------------------------------------------------|
A---------------------------------99999999101010109999---|
E-77777777--9999910101010-(PAUSE)------------------------|

Chorus

e-------------------------------------------------|
B----------------------------7777777777-----------|
G---77--77--77-----9--11-----7777777777-----9--11-|
D---99--99--99-----X--X------7777777777-----X--X--|
A---99--99--99-----7--9------5555555555-----7--9--|
E-------------------------------------------------|

e---5555555555------------------33333-22222-------|
A---5555555555------------------33333-22222-------|
D---6666666666------------------44444-33333-------|
G---7777777777-------9--11------55555-44444-------|   X4
B---7777777777-------X--X-------55555-44444-------|
E---5555555555-------7--9-------33333-22222-------|

Bridge
(THOSE ARE 10'S NOT 1'S AND 0'S)
e----------------------------------------------------------|
A----------------------------------------------------------|
D----------------------------------------------------------|    x3
G----------------------------------------------------------|
B-----99-77------------991010-55--------5577-----5577-454--|
E--77-------101099-77------------66--33------22------------|

Outro
(THOSE ARE 10'S NOT 1'S AND 0'S)
e-------------------------------------------------------------|
A--------------------7107-----------------------575-----------|
D-----7-----7-----7--------------6-----6-----6----------------|
G--99---999---999---9----------77---777---777---7-------------|
B-------------------------------------------------------------|
E-------------------------------------------------------------|

e-----------------------5(Ring)------------------------5(Ring)---|
A-----7---7---7---5---5-------------7---7---7---5---5------------|
D----------------------------------------------------------------|    X4
G--55---5---5---5---5-----------55---5---5----5---5--------------|
B----------------------------------------------------------------|


Important: The song above is NOT stored on the Chordie server. The original song is hosted at www.guitaretab.com. Chordie works as a search engine and provides on-the-fly formatting. Chordie does not index songs against artists'/composers' will. To remove this song please click here.

This song is displayed as text-only. Transposing and tuning is only available for chordpro-songs.

Login - add to songbook

Rating click stars to rate

Layout
Accuracy

SHARE PAGE  




You need to log in to post comments