Guitar Tabs, Chords and Lyrics


I Remember   Misc. Unsigned Bands



Guitar Tuning:
  Drop D-Guitar 1(Lead)
  Standard-Guitar 2(Rhythm)


Guitar 1
INTRO(Clean):
e|---------0------|
b|---3-------3---3|
g|-----2-------2--|
d|-------0--------|X2
a|-2--------------|
d|----------------|

e|----------------|
b|---------5------|
g|---7-------7---7|
d|-----7-------7--|X2
a|-------5--------|
d|-5--------------|

e|---------0------|
b|---3-------3---3|
g|-----2-------2--|
d|-------0--------|X2
a|-2--------------|
d|----------------|


e|----------------|
b|---------5------|
g|---7-------7---7|
d|-----7-------7--|X2
a|-------5--------|
d|-5--------------|

Pre Verse(Distortion):

e|------------------------------------------------------------------------------|
b|------------------------------------------------------------------------------|
g|------------------------------------------------------------------------------|
d|99999999999999-77-55555555555555-77-99999999999999-77-55555555555555-77777777-|
a|99999999999999-77-55555555555555-77-99999999999999-77-55555555555555-77777777-|
d|99999999999999-77-55555555555555-77-99999999999999-77-55555555555555-77777777-|


Verse1-Repeat Intro 3X

Then...

e|---------0------|
b|---3-------3---3|
g|-----2-------2--|
d|-------2--------|
a|-0--------------|
d|----------------|

Repeat Pre Verse...

Refrain(Distortion):

e|---------------------------------------------------------------------|
b|---------------------------------------------------------------------|
g|---------------------------------------------------------------------|
d|--22222222222222222222222222222222-33333333333333333333333333333333--|
a|--22222222222222222222222222222222-33333333333333333333333333333333--|
d|--22222222222222222222222222222222-33333333333333333333333333333333--|

e|---------------------------------------------------------------------|
b|---------------------------------------------------------------------|
g|---------------------------------------------------------------------|
d|--22222222222222222222222222222222-3333333333333333-5555555555555555-|
a|--22222222222222222222222222222222-3333333333333333-5555555555555555-|
d|--22222222222222222222222222222222-3333333333333333-5555555555555555-|

Chorus:

e|----------------------|----------------------------|
b|----------------7777--|----------------------------|
g|--77777777-9999-xxxx--|----------------------------|
d|--xxxxxxxx-xxxx-4444--|--7777------------------77--|
a|--55555555-7777-xxxx--|--7777-9999-10101010-99-77--|
d|--00000000-0000-0000--|--7777-7777-7-7-7-7--77-77--|

e|------------------------|---------------------|
b|------------------------|---------------------|
g|------------------------|---------------------|
d|--5555--------------55--|--44-5--77----5-2-0--|
a|--5555-7777-9999-77-55--|--22-2--77-9--5-2-0--|
d|--5555-5555-5555-55-55--|--------77-7--5-2-0--|



Important: The song above is NOT stored on the Chordie server. The original song is hosted at www.guitaretab.com. Chordie works as a search engine and provides on-the-fly formatting. Chordie does not index songs against artists'/composers' will. To remove this song please click here.

This song is displayed as text-only. Transposing and tuning is only available for chordpro-songs.

Login - add to songbook

Rating click stars to rate

Layout
Accuracy

SHARE PAGE  




You need to log in to post comments