Guitar Tabs, Chords and Lyrics


Slime 69   Misc. Unsigned Bands



E--33--------------------|
A--55--55---3~-----------|
D------77---5------------|
G------------------------|
B------------------------|
E------------------------|

E-------------------------------------------------------------------|
A-------------------------------------------------------------------|
D-------------------------------------------------------------------|
G-----------------13------13----------13---0------------------------|
B-----------13-12-----X2-----12-13-12-----------------12-10---------|


Important: The song above is NOT stored on the Chordie server. The original song is hosted at www.guitaretab.com. Chordie works as a search engine and provides on-the-fly formatting. Chordie does not index songs against artists'/composers' will. To remove this song please click here.

This song is displayed as text-only. Transposing and tuning is only available for chordpro-songs.

Login - add to songbook

Rating click stars to rate

Layout
Accuracy

SHARE PAGE  




You need to log in to post comments