Guitar Tabs, Chords and Lyrics


Burning Love   Misc. Unsigned Bands



I created this version of this song so everything is right but i would appreciate it if 
ur review u say whether it sounds good.

First Verse goes like this until chorus.
E---------------------------------------------------|
B---------------------------------------------------|
G----------------------------------  Repeat this 10-|x in between each of the
D---5-5-5-5-7-7-7-9---9-9-9-9-9-9-9-----------------|  Choruses.
A---5-5-5-5-7-7-7-9---9-9-9-9-9-9-9-----------------|
E---3-3-3-3-5-5-5-7---7-7-7-7-7-7-7-----------------|

Chorus:

E---------------------------------|
B---------------------------------|
G---------------------------------|
D---9-----7-----5-----------------|
A---9-----7-----5-----------------|
E---7-----5-----3-3-3-3-3-3-3-3-3-|
Repeat twice then finish chorus with this:
E-------------------------------|
B-------------------------------|
G-------------------------------|
D---9-----7-----5-6-5-7-9-------|
A---9-----7-----5-6-5-7-9-------|
E---7-----5-----3-4-3-5-7-------|

Repeat First Verse and Chorus then play first solo:

E-------------------------------------|
B---15---17---15-13-13-13-14-14-14-14-| Repeat 2x
G-------------------------------------|
D-------------------------------------|
A-------------------------------------|
E-------------------------------------|

Then Right after that play:
E-----------------------------|
B---15---17---15-13-15-17--15-|
G-----------------------------|
D-----------------------------|
A-----------------------------|
E-----------------------------|

Repeat First verse and chorus again the play final solo like this:
E---------------------------------------------|
B---13/15-13/15-15-15-15-17-13-13-13-13-13-13-|
G---------------------------------------------|Play this at least 5x then
D---------------------------------------------|fade out on this whenever you
A---------------------------------------------|want.
E---------------------------------------------|

Please Review this tab and how much u like the guitar part of this song. To help u with 


Important: The song above is NOT stored on the Chordie server. The original song is hosted at www.guitaretab.com. Chordie works as a search engine and provides on-the-fly formatting. Chordie does not index songs against artists'/composers' will. To remove this song please click here.

This song is displayed as text-only. Transposing and tuning is only available for chordpro-songs.

Login - add to songbook

Rating click stars to rate

Layout
Accuracy

SHARE PAGE  




You need to log in to post comments