Guitar Tabs, Chords and Lyrics


Musical Rapist   Misc. Unsigned Bands



Song: Musical Rapist
By: Chronic Convergence
Written By: Jonathon "N008" Ceballos
Tabbed by: Jonathon "N008" Ceballos

Rhythm Guitar

Intro/verse

D|------------------------------------------------------|
A|------------------------------------------------------|
F|*-----------------------------------------------------|
C|*---12-12-12-12-12-12-12-12-12-12-12-12-12-12-12-12---|
G|----9--9--9--9--9--9--9--9--10-10-10-10-10-10-10-10---|
C|----9--9--9--9--9--9--9--9--10-10-10-10-10-10-10-10---|x4


Chorus

D|------------------------------------------------------|
A|------------------------------------------------------|
F|*-----------------------------------------------------|
C|*---9--9--9--9--9--9--9--9--9--9--9--9--9--9--9--9----|
G|----7--7--7--7--6--6--6--6--7--7--7--7--6--6--6--6----|
C|----7--7--7--7--6--6--6--6--7--7--7--7--6--6--6--6----|x3

D|-----------------------------------------------------|
A|-----------------------------------------------------|
F|-----------------------------------------------------|
C|---7--7--7--7--7--7--7--7--7--7--7--7--7--7--7--7----|
G|---5--5--5--5--5--5--5--5--5--5--5--5--5--5--5--5----|
C|---5--5--5--5--5--5--5--5--5--5--5--5--5--5--5--5----|

Verse x1
Chorus x1

Interlude

  PM:---------------|
D|-------------------|--------------------------------------|
A|-------------------|--------------------------------------|
F|-------------------|*-------------------------------------|
C|---0-0-0-0-0-0-0-0-|*-------------------------------------|
G|---0-0-0-0-0-0-0-0-|-7----9----0----7----9----0--0-2-3-2-3|
C|---0-0-0-0-0-0-0-0-|-7----9----0----7----9----0--0-2-3-2-3|x3

Chorus x2




Lead

Song: Musical Rapist
By: Chronic Convergence

Rhythm Guitar

Intro/verse

D|------------------------------------------------------|
A|------------------------------------------------------|
F|*-----------------------------------------------------|
C|*---12-12-12-12-12-12-12-12-12-12-12-12-12-12-12-12---|
G|----9--9--9--9--9--9--9--9--10-10-10-10-10-10-10-10---|
C|----9--9--9--9--9--9--9--9--10-10-10-10-10-10-10-10---|x4


Chorus

D|------------------------------------------------------|
A|------------------------------------------------------|
F|*-----------------------------------------------------|
C|*---9--9--9--9--9--9--9--9--9--9--9--9--9--9--9--9----|
G|----7--7--7--7--6--6--6--6--7--7--7--7--6--6--6--6----|
C|----7--7--7--7--6--6--6--6--7--7--7--7--6--6--6--6----|x3

D|-----------------------------------------------------|
A|-----------------------------------------------------|
F|-----------------------------------------------------|
C|---7--7--7--7--7--7--7--7--7--7--7--7--7--7--7--7----|
G|---5--5--5--5--5--5--5--5--5--5--5--5--5--5--5--5----|
C|---5--5--5--5--5--5--5--5--5--5--5--5--5--5--5--5----|

Verse x1
Chorus x1

Interlude

  PM:---------------|
D|-------------------|--------------------------------------|
A|-------------------|--------------------------------------|
F|-------------------|*-------------------------------------|
C|---0-0-0-0-0-0-0-0-|*-------------------------------------|
G|---0-0-0-0-0-0-0-0-|-7----9----0----7----9----0--------3-5|
C|---0-0-0-0-0-0-0-0-|-7----9----0----7----9----0--0-3-2----|x3



Important: The song above is NOT stored on the Chordie server. The original song is hosted at www.guitaretab.com. Chordie works as a search engine and provides on-the-fly formatting. Chordie does not index songs against artists'/composers' will. To remove this song please click here.

This song is displayed as text-only. Transposing and tuning is only available for chordpro-songs.

Login - add to songbook

Rating click stars to rate

Layout
Accuracy

SHARE PAGE  




You need to log in to post comments