Guitar Tabs, Chords and Lyrics


An Average Way   Misc. Unsigned Bands



An Average Way 	Black Hearts	Eternity Favors
www.freewebs.com/blackheartsmusic
I Know this is 100% right because I wrote it
Riley Galloway

Intro: No Guitar 2 yet           

Guitar 1

|------------|
|------------|
|------------|
|------------|
|0-0-0-0-0---|
|------------|

|------------|
|------------|
|------------|
|------------|
|------------|
|3-3-3-3-3---|

|------------|
|------------|
|------------|
|------------|
|------------|
|1-1-1-1-1--0|

|------------|
|------------|
|------------|
|------------|
|0-0-0-0-0---|
|------------|

|------------|
|------------|
|------------|
|------------|
|------------|
|3-3-3-3-3---|

|------------|
|------------|
|------------|
|------------|
|------------|
|1-1-1-1-1--0|

Verse: Guitar 1 does tab while Guitar 2 does power chords

    A5  N.C.
|---------|
|---------|
|---------|
|---------|
|0-0------|
|---------|

    G5  N.C.
|---------|
|---------|
|---------|
|---------|
|---------|
|3-3------|

    F5  N.C.
|---------|
|---------|
|---------|
|---------|
|---------|
|1-1------|


|--------|
|--------|
|--------|
|--------|
|--------|
|--------|

    A5  N.C.
|---------|
|---------|
|---------|
|---------|
|0-0------|
|---------|

    G5  N.C.
|---------|
|---------|
|---------|
|---------|
|---------|
|3-3------|

    F5  N.C.
|---------|
|---------|
|---------|
|---------|
|---------|
|1-1------|
	
|--------|
|--------|
|--------|
|--------|
|--------|
|--------|

Chorus: Guitar 1 does tab while Guitar 2 does power chords

A5 N.C.
|----------|
|----------|
|----------|
|----------|
|0-0-0-----|
|----------|

     C5   N.C.
|------------|
|------------|
|------------|
|------------|
|0-0-3-3-3---|
|------------|

 C5 N.C.
|-----------|
|-----------|
|-----------|
|------0----|
|3-3-----3--|
|-----------|

 A5 N.C.
|----------|
|----------|
|----------|
|0---------|
|--3-0-----|

A5 N.C.
|----------|
|----------|
|----------|
|----------|
|0-0-0-----|
|----------|

     C5   N.C.
|------------|
|------------|
|------------|
|------------|
|0-0-3-3-3---|
|------------|

 C5 N.C.
|-----------|
|-----------|
|-----------|
|------0----|
|3-3-----3--|
|-----------|

 A5 N.C.
|----------|
|----------|
|----------|
|0---------|
|--3-0-----|

Verse: Guitar 1 does tab while Guitar 2 does power chords

    A5  N.C.
|---------|
|---------|
|---------|
|---------|
|0-0------|
|---------|

    G5  N.C.
|---------|
|---------|
|---------|
|---------|
|---------|
|3-3------|

    F5  N.C.
|---------|
|---------|
|---------|
|---------|
|---------|
|1-1------|


|--------|
|--------|
|--------|
|--------|
|--------|
|--------|

    A5  N.C.
|---------|
|---------|
|---------|
|---------|
|0-0------|
|---------|

    G5  N.C.
|---------|
|---------|
|---------|
|---------|
|---------|
|3-3------|

    F5  N.C.
|---------|
|---------|
|---------|
|---------|
|---------|
|1-1------|
	
|--------|
|--------|
|--------|
|--------|
|--------|
|--------|

Chorus: Guitar 1 does tab while Guitar 2 does power chords

A5 N.C.
|----------|
|----------|
|----------|
|----------|
|0-0-0-----|
|----------|

     C5   N.C.
|------------|
|------------|
|------------|
|------------|
|0-0-3-3-3---|
|------------|

 C5 N.C.
|-----------|
|-----------|
|-----------|
|------0----|
|3-3-----3--|
|-----------|

 A5 N.C.
|----------|
|----------|
|----------|
|0---------|
|--3-0-----|

A5 N.C.
|----------|
|----------|
|----------|
|----------|
|0-0-0-----|
|----------|

     C5   N.C.
|------------|
|------------|
|------------|
|------------|
|0-0-3-3-3---|
|------------|

 C5 N.C.
|-----------|
|-----------|
|-----------|
|------0----|
|3-3-----3--|
|-----------|

 A5 N.C.
|----------|
|----------|
|----------|
|0---------|
|--3-0-----|

Solo: Guitar 1 plays tab while Guitar 2 plays power chords

 A5
|5---5---5-|
|-8-5-8-5-8|
|----------|
|----------|
|----------|
|----------|

 B5
|7h8p7h8p7h8p7h8|
|---------------|
|---------------|
|---------------|
|---------------|
|---------------|

 D5
|10-12-10----10-12h13~|
|---------12----------|
|---------------------|
|---------------------|
|---------------------|
|---------------------|

 F5
|13-14-16-------18p16\\\13|
|---------17h18-----------|
|-------------------------|
|-------------------------|
|-------------------------|
|-------------------------|

 E5               G5
|12-------------12-15h16|
|------10h13-15---------|
|---12------------------|
|-----------------------|
|-----------------------|
|-----------------------|

 E5
|12p11~~~~~~|
|12p11~~~~~~|
|-----------|
|-----------|
|-----------|
|-----------|

Outro: Guitar 1 plays tab while Guitar 2 plays chords

  A
| ---------------|
| ---------------|
|.---------------|
|.---------------|
| 0-0-0-0-0-0-0-0|
| ---------------|

 Fm
|---------- |
|---------- |
|----------.|
|----------.|
|---------- |
|1-1-0~~~~~ |


Important: The song above is NOT stored on the Chordie server. The original song is hosted at www.guitaretab.com. Chordie works as a search engine and provides on-the-fly formatting. Chordie does not index songs against artists'/composers' will. To remove this song please click here.

This song is displayed as text-only. Transposing and tuning is only available for chordpro-songs.

Login - add to songbook

Rating click stars to rate

Layout
Accuracy

SHARE PAGE  




You need to log in to post comments