Guitar Tabs, Chords and Lyrics


Impossible   Misc. Unsigned Bands



Okay well for those learning this song, I just have it here so I can remember it. This 
was written by me for the band I'm in called Eternal Tension. If you ever hear us, search 
and then learn the song if you want.
We are a band made of 4 people, we got together not that long ago prob about like 2-3 
tops. And we're awesome!

This is what it MIGHT sound like. It sounds pretty awesome :].

Intro
e----------------|
b-----44-----3---|
g----5------4----|   Play 2 times.
D---5------5-----|
A--3------5------|
E--------3-------|

Verse 1
e------x-----3---|
b-----44-----3---|
g----5-5----44---|   Play 4 times.
D---5--5---5-5---|
A--3---3--5--5---|
E------x-3---3---|

Pre-Chorus
e--xxxxxx--333333--|
b--444444--333333--|
g--555555--444444--|  Play 4 times.
D--555555--555555--|
A--333333--555555--|
E--xxxxxx--333333--|

Chorus
e--xxxxx--x--0--x---xxxxx--x--0--x--|
b--88888--x--0--3---88888--x--0--1--|
g--99999--8--1--4---99999--8--1--0--|
D--99999--9--2--4---99999--9--2--2--|
A--77777--9--2--2---77777--9--2--3--|
E--xxxxx--7--0--x---xxxxx--7--0--x--|

Verse 2
e--xxxxx---33333---|
b--44444---33333---|
g--55555---44444---|   Play 4 times.
D--55555---55555---|
A--33333---55555---|
E--xxxxx---33333---|

Pre-Chorus
e--xxxxxx--333333--|
b--444444--333333--|
g--555555--444444--|  Play 4 times.
D--555555--555555--|
A--333333--555555--|
E--xxxxxx--333333--|

Chorus
e--xxxxx--x--0--x---xxxxx--x--0--x--|
b--88888--x--0--3---88888--x--0--1--|
g--99999--8--1--4---99999--8--1--0--|
D--99999--9--2--4---99999--9--2--2--|
A--77777--9--2--2---77777--9--2--3--|
E--xxxxx--7--0--x---xxxxx--7--0--x--|

Bridge
e--3----0----x----1--0--|
b--3----0----1----1--2--|
g--0----0----0----2--2--|
D--0----2----2----3--2--|
A--2----2----3----3--0--|
E--3----0----x----1--0--|

Pre-Chorus
e--xxxxxx--333333--|
b--444444--333333--|
g--555555--444444--|  Play 4 times.
D--555555--555555--|
A--333333--555555--|
E--xxxxxx--333333--|

Chorus
e--xxxxx--x--0--x---xxxxx--x--0--x--|
b--88888--x--0--3---88888--x--0--1--|
g--99999--8--1--4---99999--8--1--0--|
D--99999--9--2--4---99999--9--2--2--|
A--77777--9--2--2---77777--9--2--3--|
E--xxxxx--7--0--x---xxxxx--7--0--x--|

Ending
e--3----0----x----0--|
b--3----0----1----2--|
g--0----0----0----2--|
D--0----2----2----2--|
A--2----2----3----0--|
E--3----0----x----0--|

Lyrics:

Impossible

Written by: Brett Nguyen & Katie Lansing
Revised and Edited by: Michael (Mickey) Schwarz

1st Verse:
Went against his mind, body, and spirit
Ignored it all, don't wanna hear it
Forgot about all else
Only cared about what she felt

Pre-chorus:
Can't believe what's happening
Can't believe it's true
Can't reveal the truth to them
Scilence is what is true

Chorus:
Broken rules impossible impossible to heal
Wonder what is going on
I wonder how it feels
Can't imagine what comes next
Mind is just perplex

2nd Verse:
He's just about half the way there
Just killin' time can't go anywhere
Life bringing him down
But she's what he found

Pre-chorus:
Can't believe what's happening
Can't believe it's true
Can't tell them at all
Don't wanna see it fall

Chorus:
Broken rules impossible impossible to heal
Wonder what is going on
I wonder how it feels


Bridge:
Religion is number one
But the action's already done
But breaking it down isn't all that bad
Especially when you love someone you've never had

Pre-chorus:
Can't believe what's happening
Can't believe it's true
Can't reveal the truth to them
Scilence is what is true

Chorus:
Broken rules impossible to heal
Wonder what's going on
I wonder how it feels
Can't imagine what comes next
Mind is just perplex

Ending:
It will get better
It will get better
It will get better...
Soon.....



Important: The song above is NOT stored on the Chordie server. The original song is hosted at www.guitaretab.com. Chordie works as a search engine and provides on-the-fly formatting. Chordie does not index songs against artists'/composers' will. To remove this song please click here.

This song is displayed as text-only. Transposing and tuning is only available for chordpro-songs.

Login - add to songbook

Rating click stars to rate

Layout
Accuracy

SHARE PAGE  




You need to log in to post comments