Guitar Tabs, Chords and Lyrics


Goodbye Lulaby   Misc. Unsigned Bands



Intro and Verse 1
E----------------------------------------------------------|
B----------------------------------------------------------|
G---9---5---12---/11---x--x--------------------------------| x4
D---9---5---12---/11---x--x--------------------------------|
A---7---3---10---/9----x--x--------------------------------|
E----------------------------------------------------------|

Chorus
E----------------------------------------------------------|
B----------------------------------------------------------|
G-----------11---------------------------------------------| x3
D---9---5---11---------------------------------------------|
A---9---5---9----------------------------------------------|
E---7---3--------------------------------------------------|

Verse 2
E----------------------------------------------------------|
B----------------------------------------------------------|
G---9---5---12---/11---x--x--------------------------------| x4
D---9---5---12---/11---x--x--------------------------------|
A---7---3---10---/9----x--x--------------------------------|
E----------------------------------------------------------|

Chorus
E----------------------------------------------------------|
B----------------------------------------------------------|
G-----------11---------------------------------------------| x3
D---9---5---11---------------------------------------------|
A---9---5---9----------------------------------------------|
E---7---3--------------------------------------------------|

Bridge
E----------------------------------------------------------|
B----------------------------------------------------------|
G-----------11---------------------------------------------| x3
D---9---5---11---------------------------------------------|
A---9---5---9----------------------------------------------|
E---7---3--------------------------------------------------|

Verse 3
E----------------------------------------------------------|
B----------------------------------------------------------|
G---9---5---12---/11---x--x--------------------------------| x4
D---9---5---12---/11---x--x--------------------------------|
A---7---3---10---/9----x--x--------------------------------|
E----------------------------------------------------------|

Chorus
E----------------------------------------------------------|
B----------------------------------------------------------|
G-----------11---------------------------------------------| x3
D---9---5---11---------------------------------------------|
A---9---5---9----------------------------------------------|


Important: The song above is NOT stored on the Chordie server. The original song is hosted at www.guitaretab.com. Chordie works as a search engine and provides on-the-fly formatting. Chordie does not index songs against artists'/composers' will. To remove this song please click here.

This song is displayed as text-only. Transposing and tuning is only available for chordpro-songs.

Login - add to songbook

Rating click stars to rate

Layout
Accuracy

SHARE PAGE  




You need to log in to post comments