Guitar Tabs, Chords and Lyrics


Uwian Na  Misc. Unsigned Bands

e------------------------------------------------1010--|


b-/1010-88--77----/1010-88-77---/1010-88-77--77-88-----|


g-------------77------------77-------------------------|

D------------------------------------------------------| 2x
A------------------------------------------------------|
E------------------------------------------------------|
e-----------------------------------------------------|
b------------------------------------------------16---|
g-12/14\12/11----12/14\12/11---12/14\12/11/12\14------| 2x
D-------------13------------13------------------------|
A-----------------------------------------------------|
E-----------------------------------------------------|
[D]Teacher,Teacher pago[A]d na kami
[Bm]Lumilipad ang utak n[G]aming
[D]Recess, break[A] time,
[Bm]Ready na rin ang cleaners n[G]aming
[D]Homework, qui[A]zzes, pa[Bm]ti na rin ang pro[G]ject naming.
[D]Noisy, standing[A] pass yo[Bm]ur papers q[G]uietly!
RefraiN:
[Bm]Ilan minuto p[A]a ba? G[Bm]usto ko nang magpa[A]hinga!

Chorus:

[D]Uwia[A]n na, u[Bm]wian [G]na! 2x

Adlib: D-A-Bm-G 2x

e------------------------------------------------1010--|
b-/1010-88--77----/1010-88-77---/1010-88-77--77-88-----|
g-------------77------------77-------------------------|
D------------------------------------------------------| 2x
A------------------------------------------------------|
E------------------------------------------------------|

Or
e-----------------------------------------------------|
b------------------------------------------------16---|
g-12/14\12/11----12/14\12/11---12/14\12/11/12\14------| 2x
D-------------13------------13------------------------|
A-----------------------------------------------------|
E-----------------------------------------------------|


Verse 2: (DO CP: D-A-Bm-G)
Klasmeyt, Klasmeyt huwag kang makulit!
Baka mapalo ni Mrs. Sungit!
Kopya assignment, huwag ka lang paulit-ulit
Cutting classes, Gawain ng kaklase kong mabaitÂ…
Bagyo ang sabi sa radio..walang pasok walang pasokÂ…

[Bm]Ilan minuto p[A]a ba? G[Bm]usto ko nang magpa[A]hinga!

Adlib: D-A-Bm-G 2x

RefraiN:
[Bm]Ilan minuto p[A]a ba? G[Bm]usto ko nang magpa[A]hinga!

Chorus:

[D]Uwia[A]n na, u[Bm]wian [G]na! 2x

Fade:

Important: The song above is NOT stored on the Chordie server. The original song is hosted at www.guitaretab.com. Chordie works as a search engine and provides on-the-fly formatting. Chordie does not index songs against artists'/composers' will. To remove this song please click here.

Text color:
Chord color:
Chord grids: 
Font size:    
Page size: 

A Bm D G
variations - click chord images

Login - add to songbook

Transpose chords

Tuning

Rating click stars to rate

Layout
Accuracy

SHARE PAGE  




You need to log in to post comments