Guitar Tabs, Chords and Lyrics


Brickhouse Blues  Misc. Unsigned Bands

I was [G]looking at guitars
Opposite the place where [Am7]people sign their dole forms
And I walked out through them [G]doors
Struck a light out on the [Am7]corner in stone silence
C/g D
And I saw a man with no center of balance
Going where they take your [G]name
And I wondered how it is not to be one, [D]because I've been one
And I [Em]know it isn't [D]all just working [C]class
So I  joined them,[D] and daylight turned to [G]stars

I was checking out the next girl
On the seat in front, with a dress like a palm tree lover
And she spoke of plans ahead
Voice and mouth in a race, with a trace of Spanish above her
And in my mind I put my eyes under the cover
And I knew I was alone
But I wondered why she stayed
And so supremely, she must have seen me looking
Still I stepped aside to let her pass
And then we parted, and the lights all turned to stars

SOLO

e------------------------------------------------------------------|
B------------------------------------------------------------------|
G-------------------------------------------------------12-14b-12--|
D--------5---5h7-7s9---10-9h10p9------------------12-14------------|
A--5-5h7-------------------------10-10s12---12h14------------------|
E------------------------------------------------------------------|
----------------------------------------------------------------|
--------12h13s15---13-12h13p12------------------------8-10-10b--|
--12h14------------------------12-12s14---12s9--7-7h9-----------|
----------------------------------------------------------------|
----------------------------------------------------------------|
----------------------------------------------------------------|
--------10-12-10---12p10-------------------------------------|
--10s12------------------12-13-12h13p12----------------------|
----------------------------------------14-12---------12-12--|
------------------------------------------------13h14--------|
-------------------------------------------------------------|
-------------------------------------------------------------|
-----------------15-17-15--------------------------------------------|
-----------15-17----------17-15-13-12h13-15-15-13-12h13p12-----------|
--12h14----------------------------------------------------11h12s14--|
---------------------------------------------------------------------|
---------------------------------------------------------------------|
---------------------------------------------------------------------|
----------------------------------------------------------------------------|
------------------------------------------------8-10-8-10b-8---8-10-10b-8---|
--12-11h12p11---------------------------5-7-7s9--------------9--------------|
--------------12-10-9-9h10--10s0---5h7--------------------------------------|
----------------------------------------------------------------------------|
----------------------------------------------------------------------------|
-------------------------|
-------------------------|
--------------12-14-14b--|
--------12-14------------|
--12h14------------------|
-------------------------|



I's walking from the brick house
With the green light shouting words as I walked onwards
And I stepped into an offy
'Cause I like a beer, perhaps more than I should
Saw a poor man outside wearing less than I would
On a cold november day
And I asked him why he dressed
With so little on his chest and he told me
That his father has a house of gold and brass
C/g D D7 Em C/g D
Then he faded and disappeared as I left fast
D7 Em C/g D
'Cause only some of us are looking at the stars
'Cause only [D7]some of us are looking at the [G]stars

OUTTRO LEAD TAB..

e----------------------7--7---------------------------------------|
B--------------------8------8---10-8------------------------------|
G----------4-5-7-7s9-----------------9-7---7s5-4-0-0h2---0h2-4-5--|
D------5-7--------------------------------------------------------|
A--5h7------------------------------------------------------------|
E-----------------------------------------------------------------|
--------------------------------------|
--------------------------------------|
--5-5-5s7---5-4h5p4-------------------|
--------------------7-5------7p5---5--|
---------------------------------7----|
--------------------------------------|


the end!! hope was of use x

Important: The song above is NOT stored on the Chordie server. The original song is hosted at www.guitaretab.com. Chordie works as a search engine and provides on-the-fly formatting. Chordie does not index songs against artists'/composers' will. To remove this song please click here.

Text color:
Chord color:
Chord grids: 
Font size:    
Page size: 

Am7 C D D7 Em G
variations - click chord images

Login - add to songbook

Transpose chords

Tuning

Rating click stars to rate

Layout
Accuracy

SHARE PAGE  




You need to log in to post comments