Guitar Tabs, Chords and Lyrics


Raeven Og Tegnebogen  Misc. Unsigned Bands

E||---------------------------|-------------------------|


B||--1------------------------|-------------------------|


G||------0-2--0-----2--0------|-----------0-----0-------|

D||--------------2------------|--0---0-2-----0-----2----|
A||-----------------------3-3-|-------------------------|
E||---------------------------|-------------------------|
-------------------------|---------------------------||
--1----------------------|---------------------------||
------0-2--0-----2-------|---------------------------||
--------------2----------|--3-3-3-3-2-----0--2-------||
--------------------3----|-------------3--------3----||
-------------------------|---------------------------||
En [C]dag, der kom jeg [F]hjem fra [C]job, en [G]dag som mange [C]andre
[Am]Pludselig en be[G]kymring [C]kom. Der manglede noget i min [G]bukse[C]lom’.
2. vers:
Min tegnebog var ganske forsvundet, i min lomme lå der røde hår.
Røde hår fra Mikkelræv, jeg fulgte sporet ind i Rold skov.

Omkvæd:
[C]Åh     æh     åh  [F]æh     [C]åh
[F]Ræven tog min [G]tegne[C]bog
[C]Åh     æh     åh  [F]æh     [C]åh
[F]Ræven tog alle mi[G]ne pen[C]ge.

3. vers:
Og sporet førte mig langt ind i skoven, indtil jeg kom til en krostue.
I kroens bar sad Mikkeræv, og pralede med alle mine penge.

4. vers:
Han havde købt en stor flaske whisky, femten øl og lidt brændevin,
og ved hans side sad unge pi’r, som kyssede ham på hans rævemund.

Bridge til omkvædet:
S S S S S S S S E E Q
E||--8-5---5--------------------||
B||------8---8-5-----5----------||
G||--------------8-7----7--5----||
D||-----------------------------||
A||-----------------------------||
E||-----------------------------||


Omkvæd:
[C]Åh     æh     åh  [F]æh     [C]åh
De [F]kyssede ham på hans [G]ræve[C]mund.
[C]Åh     æh     åh  [F]æh     [C]åh
Han [F]kyssede dem med sin [G]ræve[C]tung’.

Omkvæd:
[C]Åh     æh     åh  [F]æh     [C]åh
De [F]kyssede ham på hans [G]ræve[C]mund.
[C]Åh     æh     åh  [F]æh     [C]åh
Han [F]kyssede dem med sin [G]ræve[C]tung’.

5. vers:
Jeg hævede mit haglgevær, og råbte Mikkel din tyv nu må du ta’ din straf.
Ræven ligned et spørgsmåltegn, og sagde: ”Hvad mener du med det?” Han var ganske paf.

6. vers:
Så pegede ræven på en rødhåret mand, og sagde: ”Derovre sidder din tyveknægt!”
Ræven havde ret, jeg havde taget fejl, jeg sagde: ”Undskyld” og skød så den rødhåred’ mand.

Bridge til omkvædet: Tre skud!

Omkvæd:
[C]Åh     æh     åh  [F]æh     [C]åh
Den [F]rødhåred’ mand tog min [G]tegne[C]bog.
[C]Åh     æh     åh  [F]æh     [C]åh
Nu [F]hviler han i [G]jyske [C]muld.

Omkvæd:
[C]Åh     æh     åh  [F]æh     [C]åh
Ja, den [F]rødhåred’ mand tog min [G]tegne[C]bog.
[C]Åh     æh     åh  [F]æh     [C]åh
Nu [F]hviler han i [G]jyske [C]muld.

Outro Omkvæd:
[C]Åh     æh     åh  [F]æh     [C]åh
|F F G C|
[C]Åh     æh     åh  [F]æh     [C]åh
|F F G C|
[C]Åh     æh     åh  [F]æh     [C]åh
|F F G C|
[C]Åh     æh     åh  [F]æh     [C]åh
Ja, nu [F]hviler han i [G]jyske [C]muld.


Det er vist hele sangen, akkorderne er de samme i versene.
God fornøjelse
derGantzel

Important: The song above is NOT stored on the Chordie server. The original song is hosted at www.guitaretab.com. Chordie works as a search engine and provides on-the-fly formatting. Chordie does not index songs against artists'/composers' will. To remove this song please click here.

Text color:
Chord color:
Chord grids: 
Font size:    
Page size: 

Am C F G
variations - click chord images

Login - add to songbook

Transpose chords

Tuning

Rating click stars to rate

Layout
Accuracy

SHARE PAGE  




You need to log in to post comments