Guitar Tabs, Chords and Lyrics


Long Drive Home   Misc. Unsigned Bands



Tabbed by:shermanater182
Email:shermanater182@aim.com

http://www.myspace.com/saynomore

Tuning:standard
intro
e|---------------------------------------------------------------------|
B|---------------------------------------------------------------------|
G|---------------------------------------------------------------------|
D|------8------------8-------------------------------------------------|
A|----6-----6----6-----6-----------------------------------------------|
E|--4-----6----8---8---------------------------------------------------|
repeat until highway signs lit by headlights
then it goes into a verse:
not quite sure bout this one

e|---------------------------------------------------------------------|
B|---------------------------------------------------------------------|
G|-----------------10--8--10-8-----------------------------------------|
D|-6-10-8--------8-10--8--10-8-----------------------------------------|
A|-6-10-8--------8-8---6--8--6-----------------------------------------|
E|-4-8--6--------6-----------------------------------------------------|


chorus x 2
e|---------------------------------------------------------------------|
B|---------------------------------------------------------------------|
G|---------------------------------------------------------------------|
D|--66666--88888--55555---10--8--6-------------------------------------|
A|--66666--88888--55555---10--8--6-------------------------------------|
E|--44444--66666--33333---8---6--4-------------------------------------|

then it goes back to the intro and then verse and chorus

bridge
keyboard parts for guitar in () rest is over intro and palm muted. listen to the song ull hear it
e|--------------------------------------------------------------------------------|
B|(4)(6)(8)--6-6-4-6p4-(4)(6)(8)-6-6-4-6h8-4-(4)(6)(8)-6-6-4-6p4-6p4-8-4-3-4-4----|
G|--------------------------------------------------------------------------------|
D|--------------------------------------------------------------------------------|
A|--------------------------------------------------------------------------------|
E|--------------------------------------------------------------------------------|

"and i need this now" if u know the song you'll get the pattern right away
e|------------------------------------------------------------------|
B|------------------------------------------------------------------|
G|------------------------------------------------------------------|
D|-8888-------------------------------------------------------------|
A|-8888-------------------------------------------------------------|
E|-6666-------------------------------------------------------------|

   "and it all makes perfect sense"
e|------------------------------------------------------------------|
B|------------------------------------------------------------------|
G|------------------------------------------------------------------|
D|-8888-------------------------10--8-------------------------------|
A|-8888-------------------------10--8-------------------------------|
E|-6666-------------------------8---6-------------------------------|

chorus

again if you know the song and the strumming etc im pretty sure this should sound perfect so far


Important: The song above is NOT stored on the Chordie server. The original song is hosted at www.guitaretab.com. Chordie works as a search engine and provides on-the-fly formatting. Chordie does not index songs against artists'/composers' will. To remove this song please click here.

This song is displayed as text-only. Transposing and tuning is only available for chordpro-songs.

Login - add to songbook

Rating click stars to rate

Layout
Accuracy

SHARE PAGE  




You need to log in to post comments