Guitar Tabs, Chords and Lyrics


Dont Do Surprises  Misc. Unsigned Bands

   [D#]    [A#]    [Cm]    [G#]                                                                    
e|-5---5---8---4---|
B|-7---5---8---4---|
G|-7---6---8---5---|
D|-7---7---10--6---|
A|-5---7---10--6---|
E|-----5---8---4---|


Intro:

   [D#]                [A#]              [Cm]                     [G#]                             
e|-11------11------11------11/13-10---10------10------8------8-----|
B|----11------11------11-----------------11------11-----11-----11--|
G|-----------------------------------------------------------------|
D|-----------------------------------------------------------------|
A|-----------------------------------------------------------------|
E|-----------------------------------------------------------------|


Verse 1:

[Cm]I’m feeling [D#]blind, like the [A#]suns in my eyes, theres [G#]something you need to know

[Cm]I’m wasting [D#]time, fall behi[A#]nd, in my mind, cause I’m fight[G#]ing in a losing war
[Cm]Tiny little fault lines [D#]cracking inside my [A#]soul  oul  [G#]oul
Chorus:

You can't[D#] look me in the eyes[A#],

And I [Cm]don’t do surprises [G#]
I got [D#]nothing at all [A#]
If you [Cm]catch me I fall [G#]
Verse 2:

Signs, neon lights
Like a thief in the night
Who was welcome with an open door
I’m serving time,
By myself, for a crime,
Theres a reason i can’t ignore
Holding everything that i was ever looking for

Interlude: Same Chords as the Chorus (try palm mute)

Look inside me, seems that I’ve been,
Don’t forget to pay your bill now,
dudes is new who’s forming ?
call my friends and tell them theres a party
the sun is coming up, my heart is falling
out and i've been blinded,
no one has the ace of spades,
but if you play the game you’ll find it,
I’m running and searching, sinking, thinking, hoping for another
We need to drink and vibe, and try not to hold back each other

Important: The song above is NOT stored on the Chordie server. The original song is hosted at www.guitaretab.com. Chordie works as a search engine and provides on-the-fly formatting. Chordie does not index songs against artists'/composers' will. To remove this song please click here.

Text color:
Chord color:
Chord grids: 
Font size:    
Page size: 

A# Cm D# G#
variations - click chord images

Login - add to songbook

Transpose chords

Tuning

Rating click stars to rate

Layout
Accuracy

SHARE PAGE  




You need to log in to post comments