Guitar Tabs, Chords and Lyrics


Warkah Sindarela Ost  Misc. Unsigned Bands

   [C]    [B]   [Am]    [Em]                                                                                  
e|---|---|---|---|
B|-1-|-1-|-1-|-1-|
G|---|-0-|-2-|-0-|
D|-2-|-0-|-2-|-2-|
A|-3-|-2-|-0-|-2-|
E|---|---|---|-0-|


Intro:

C B C B ring
e|-----------------------------------0-------|
B|-1--1-3-1-1--1-3-1--1--1-3-1-1--1-3-3------|
G|------------------0------------------0-----|
D|---2--------0---------2--------0-----------|
A|-3----3---2----2----3----3---2----2--------|
E|-------------------------------------------|


verse:

[C]Takkan lagi aku menu[B]nggu
Kau [Am]hadir di dalam [Em]mimpi-mimpiku
[C]Puasku mengharapkan di[B]rimu
Sepe[Am]rti mereka yang punya[Em] cinta

[C]Diriku tanpa dir[B]imu
Kau [Am]tempuhi penuh baha[Em]gia
[C]Diriku mahu kau t[B]ahu
Ped[Am]ih ini kau tak ter[Em]asa
[C]Warkahku mengharapkan d[B]irimu
Sepert[Am]i yang aku kenali du[Em]lu
[C]Setiaku menantikan diri[B]mu
Seper[Am]ti setianya terhadap dir[Em]iku
[C]Tapiku melepaskan[B] mu
Melangk[Am]ah namun tak berda[Em]ya
[C]Terusku terus menun[B]ggu
Cinta [Am]yang takkan pernah [Em]ada
Chord and tabbed by: G.G :)
Any comment please reply to my email: nikkhairulazizi@yahoo.com

Important: The song above is NOT stored on the Chordie server. The original song is hosted at www.guitaretab.com. Chordie works as a search engine and provides on-the-fly formatting. Chordie does not index songs against artists'/composers' will. To remove this song please click here.

Text color:
Chord color:
Chord grids: 
Font size:    
Page size: 

Am B C Em
variations - click chord images

Login - add to songbook

Transpose chords

Tuning

Rating click stars to rate

Layout
Accuracy

SHARE PAGE  




You need to log in to post comments