Guitar Tabs, Chords and Lyrics


Dakota  Misc. Unsigned Bands

  Intro Guitar#2:   |-------------------------------------x2|------|


                    |---------------------------------------|------|


                    |-6-6-6-6-6-6--10101010--6-6--8-8-8-8---|--6~--|

|-x-x-x-x-x-x--x-x-x-x---x-x--x-x-x-x---|--x---|
|-4-4-4-4-4-4--8-8-8-8---4-4--6-6-6-6---|--4~--|
|---------------------------------------|------|
  So much f[C#]or, a home[G#] to call your[Bbm] own
  [C#]Parent's screaming through the night
  They [F#]drank and drank until she said goodb[C#]ye
  She's stronge[G#]r on h[Bbm]er own
  [F#]Searching for the hope in this, to f[F#]ind a place where more than hope exists
[C#]  This is not your f[F#]ault [Tbis is not your fault]
[C#]  This is not your f[F#]ault
  Sh[C#]e smiles,[G#] life hasn't been fair to her [Dakota]
  She[Bbm], smiles caus[F#]e you can't get the best of her [Dakota]
  She[C#], smiles and [G#]gives herself for s[G#]omeone [A]else
  and [Bbm]won't ask a [C#]thing in re[F#]turn [Dakota]
  She's been t[C#]old, those simple[G#] words "I lo[Bbm]ve you"
  She to[C#]ok him back so many times, he [F#]lied alot until she said goodb[C#]ye
  She's stronge[G#]r on h[Bbm]er own
  The [C#]truth is that she doesn't see,
  she [F#]needs much more than simple [F#]words can be
[C#]  This is not your f[F#]ault [Tbis is not your fault]
[C#]  This is not your f[F#]ault
  Sh[C#]e smiles,[G#] life hasn't been fair to her [Dakota]
  She[Bbm], smiles caus[F#]e you can't get the best of her [Dakota]
  She[C#], smiles and [G#]gives herself for s[G#]omeone [A]else
  and [Bbm]won't ask a [C#]thing in re[F#]turn [Dakota]
[Bbm]  You might see her crying but[F#], you won't catch her lying down
[C#]  You might see her crying but[G#], you won't catch her lying down
[Bbm]  You might see her crying but[C#], you won't catch her lying down
[Bbm]    She won't make a [F#]sound
  The little [C#]girl she's holdin[G#]g in her [Bbm]arms
  The [F#]doctors don't know why she died
  Her [F#m]heart just stopped, she didn't say goodbye
  Solo: C# G# Bbm F# |------------------------------------------------------|
                     |-------------------------------9--9--9--9--9--9-11-11-|
                     |-8^--6-8h-6p----6-8h-10-11---13-13-13-13-13-13-15-15--|
                     |-------------6----------------------------------------|
                     |------------------------------------------------------|
                     |------------------------------------------------------|
                     |---------------------------------------------|
                     |---------------------------------------------|
                     |--6-8-8^--6-8h-6p---6-8h-10-11--6-8-10-10/15-|
                     |-6------------6------------------------------|
                     |---------------------------------------------|
                     |---------------------------------------------|



  She[C#] smiles,[G#] life hasn't been fair to her
  She[Bbm], smiles caus[F#]e you can't get the best of her
  She[C#], smiles and [G#]gives herself for s[G#]omeone [A]else
  and [Bbm]won't ask a th[C#]ing in re[F#]turn
  Oh no, she [Bbm]won't ask a th[C#]ing in re[F#]turn
  Da[C#]kota,[G#] life hasn't been fair to you
  Da[Bbm]kota,[F#] life hasn't been fair to you
  Da[C#]kota,[G#] life hasn't been fair to you
  Da[Bbm]kota..  [F#]      [C#]

Important: The song above is NOT stored on the Chordie server. The original song is hosted at www.guitaretab.com. Chordie works as a search engine and provides on-the-fly formatting. Chordie does not index songs against artists'/composers' will. To remove this song please click here.

Text color:
Chord color:
Chord grids: 
Font size:    
Page size: 

A Bbm C# F# F#m G#
variations - click chord images

Login - add to songbook

Transpose chords

Tuning

Rating click stars to rate

Layout
Accuracy

SHARE PAGE  




You need to log in to post comments