Guitar Tabs, Chords and Lyrics


Delano Song   Misc. Unsigned Bands



Delano song 2
by The Aborais

1st  guitar:

Intro:

---0-00-00-0-00-00-2-22-22-33-22-----------|
-------------------------------------------|
-------------------------------------------|
-------------------------------------------|
-------------------------------------------|
-------------------------------------------|

Main verse:

1st guitar:

---0-0—2-2--0-0--3-2--------------------| repeat
----------------------------------------|
----------------------------------------|
----------------------------------------|
----------------------------------------|
----------------------------------------|

2nd guitar:

------------------0-0------3--0---| repeat
------------------2-2------0--2---|
---0-0----1-1-----2-2------0--2---|
---2-2----2-2-----2-2------0--2---|
---2-2----2-2-----0-0---------0---|
---0-0----0-0---------------------|

Chorus:

1st  guitar:

--0000---22222---0000--22222--33333--22222----------------|  2x
----------------------------------------------------------|
----------------------------------------------------------|
----------------------------------------------------------|
----------------------------------------------------------|
----------------------------------------------------------|

2nd guitar:

------------00000--------------00000---11111----00000-----|  2x
------------22222--------------22222---00000----22222-----|
---0101-----22222----0101------22222---00000----22222-----|
---2222-----22222----2222------22222---00000----22222-----|
---2222-----00000----2222------00000------------00000-----|
---0000--------------0000---------------------------------|



Important: The song above is NOT stored on the Chordie server. The original song is hosted at www.guitaretab.com. Chordie works as a search engine and provides on-the-fly formatting. Chordie does not index songs against artists'/composers' will. To remove this song please click here.

This song is displayed as text-only. Transposing and tuning is only available for chordpro-songs.

Login - add to songbook

Rating click stars to rate

Layout
Accuracy

SHARE PAGE  




You need to log in to post comments