Guitar Tabs, Chords and Lyrics


Wet Asphalt  Misc. Unsigned Bands

   [C]                  [F]                             [C]                    [F]        
E|-0--------------------------|                 |-0---------------------------|
B|-1----1h3p1--------1--------|                 |-1----1h3p1----------------1-|
G|-0----------0------2--------|                 |-0----------0-----------2----|
D|-2------------2----3--3---3-|                 |-2------------2-----------3--|
A|-3-----------------3----3---|                 |-3-------------------3-------|
E|-------------------1--------|                 |-----------------------------|


   [C]                  [G]                                                         
E|-0-----------------3------------|
B|-1----1h3p1--------3--3---------|
G|-0----------0------4------------|
D|-2------------2----5----5-------|
A|-3-----------------5------3h5p3-|
E|-------------------3------------|


first second + third time
   [C]                    [Am]                  [G]     [F]     [F]    [G]      [C]                 
E|-0----------------------------------|--3----1-|--------------|
B|-1----1h3p1------------------0h1--0-|--3----1-|--1---0-----1-|
G|-0----------0------------0h2--------|--4----2-|--2---0-----0-|
D|-2-------------------0h2------------|--5----3-|--3---0-----2-|
A|-3----------------------------------|--5----3-|--3---2-----3-|
E|------------------------------------|--3----1-|--1---3-------|


verse
I'm reading the paper...
[C]        [F]        [C]    [G]    [C]             
E|-------------|
B|-------------|
G|---------0---|
D|--------2--0-|
A|-------------|
E|--0h3--------|


Tonight you look great...
C F C G x2

chorus
Everything's fine...
E Am F G x2
[C]    [G]    [C]    [G]                         
outro
[E]E       [Am]Am      [F]...     [G]
[C]etc.[F]..  [G]    [G]

Important: The song above is NOT stored on the Chordie server. The original song is hosted at www.guitaretab.com. Chordie works as a search engine and provides on-the-fly formatting. Chordie does not index songs against artists'/composers' will. To remove this song please click here.

Text color:
Chord color:
Chord grids: 
Font size:    
Page size: 

Am C E F G
variations - click chord images

Login - add to songbook

Transpose chords

Tuning

Rating click stars to rate

Layout
Accuracy

SHARE PAGE  




You need to log in to post comments