Guitar Tabs, Chords and Lyrics


Buen Camino   Misc. Unsigned Bands



-------------------------------------------------------------------------------
			     BUEN CAMINO - Emer O'Neill
----------------------------------------------------------------------------
This song is a simple song. It is only made effective when played by ear using the heel 
your palm during the middle of the song to tap a heartbeat rythem off the saddle of your 
The artist is a Belfast girl called Emer, check her myspace @:www.myspace.com/emeroneill1982

Tabbed by:Smippie
Email:

Tuning:Standard
This is the first part of the song repeated.
e|---------------------------------------------------------------------------|
B|---------------------------------------------------------------------------|
G|---------------------------------------------------------------------------|
D|-0-0-0-0-------------------------------------------------------------------|
A|-2-0-0-3-------------------------------------------------------------------|
E|-0-2-3-0-------------------------------------------------------------------|
This second part is all about timing with tapping the saddle and hammering on each of 
notes. Repeated
e|---------------------------------------------------------------------------|
B|---------------------------------------------------------------------------|
G|---------------------------------------------------------------------------|
D|---------------------------------------------------------------------------|
A|-2-----3h0h3h0h3h0h3h0h3h0-------------------------------------------------|
E|---2-3---------------------------------------------------------------------|
This third part is identical to the first part only Emer plays it with more intensity by 
a slap string strum to it. Repeat until the end of the song
e|--------------------------------------------------------------------------|
B|--------------------------------------------------------------------------|
G|--------------------------------------------------------------------------|
D|-0-0-0-0------------------------------------------------------------------|
A|-2-0-0-3------------------------------------------------------------------|


Important: The song above is NOT stored on the Chordie server. The original song is hosted at www.guitaretab.com. Chordie works as a search engine and provides on-the-fly formatting. Chordie does not index songs against artists'/composers' will. To remove this song please click here.

This song is displayed as text-only. Transposing and tuning is only available for chordpro-songs.

Login - add to songbook

Rating click stars to rate

Layout
Accuracy

SHARE PAGE  




You need to log in to post comments